Guitar Tabs for Zero (part 5)

(/) Slide Up  (\) Slide Down  (h) Hammer On  (p) Pull Off  (b) Bend (r) Release (v) Vibrato (x) Muted

Tabs & Chords
BPM : 117.0
Check Track 2 for Chord Positions 

    B                    F#                                                    B              F# 
E|--5--------------------------------4-----6-----------------------------------------------------
B|-----------------------------------------------------------------0--0--------------------------
G|--------------------------------3-----3--------------------------------------------------------
D|-----------4--4-----------------------------7--4-----------6-----------6-----4-----3--3--------
A|-----6-----------------------------------------------6--------------------------------------4--
E|-----------------7--7--7--7--------------------------------------------------------------------

                                                          C#                B     F#          
E|--------------------------------4--5--6-----------------------------------------------------
B|--------------------------------------------------------------0--0--------------------------
G|--------------3--------------3-----------------------------------------------------------3--
D|-----------7--------7--6--------------------4-----------6-----------6-----4-----0-----------
A|--4--3--------------------------------------------6--------------------------------4--------
E|--------------------------------------------------------------------------------------------

                                                    C# 
E|-----------------------------------------------------
B|-----------------------------------------------------
G|-----3-----3--------------------------3--------------
D|-----------------6--7--6-----3--4-----------3-----3--
A|-----------------------------------------------------
E|-----------------------------------------------------

Guitar Tabs for Zero (part 5)






    B                    F#                                                    B              F# 
E|--2--------------------2-----------------------------------------------------2--------------2--
B|--4--------------------2-----------------------------------------------------4--------------2--
G|--4--------------------3-----------------------------------------------------4--------------3--
D|--4--------------------4-----------------------------------------------------4--------------4--
A|--2--------------------4-----------------------------------------------------2--------------4--
E|-----------------------2--------------------------------------------------------------------2--

                                                          C#                B     F#          
E|--------------------------------------------------------4-----------------2-----2-----------
B|--------------------------------------------------------6-----------------4-----2-----------
G|--------------------------------------------------------6-----------------4-----3-----------
D|--------------------------------------------------------6-----------------4-----4-----------
A|--------------------------------------------------------4-----------------2-----4-----------
E|--------------------------------------------------------------------------------2-----------

                                                    C# 
E|--------------------------------------------------4--
B|--------------------------------------------------6--
G|--------------------------------------------------6--
D|--------------------------------------------------6--
A|--------------------------------------------------4--
E|-----------------------------------------------------

tabs and chords, guitar tabs, music transcription, music technology, deep learning, music information retrieval, transcribe into tabs & chords, chordify, music renditions, songsterr, reverbnation, tabulature, bollywood chords, ultimate guitar, yousician, guitar lessons, acoustic guitar, electric guitar, guitar tuner, 911 tabs