Guitar Tabs for Zero (part 3)

(/) Slide Up  (\) Slide Down  (h) Hammer On  (p) Pull Off  (b) Bend (r) Release (v) Vibrato (x) Muted

Tabs & Chords
BPM : 89.0
Check Track 2 for Chord Positions 

          D#m   B                                      F#                                        
E|-----------------------------------------------------------------------------------------------
B|--------------------------------0--0-----------------------------------------------------------
G|-----------------------------------------------------------------------------------------------
D|--------3--4--0--------3-----4-----------------------3--4--4--4--4-----4-----4--------------4--
A|--6-----------------6--------------------------------------------------------------------------
E|--------------------------------------------2--2--------------------------------2-----2--------

                                                                C#                      D#m   
E|--------------------------------------------------------------------------------------------
B|--------------------------------------------------------------------------------------------
G|--------------0-----------------------------------------------------------------------0-----
D|--4-----4--------4--------4-----2--4-----4--3--3--------------3--3--------------0--4-----4--
A|-----------------------4--------------------------6-----4-----------6--6--4-----------------
E|--------------------------------------------------------------------------------------------

          D#          B              
E|-----------------------------------
B|-----------------------------------
G|-----------------------------------
D|--4--4-----2--0-----4--3-----------
A|--------6--------------------2--4--
E|-----------------------------------

Guitar Tabs for Zero (part 3)






          D#m   B                                      F#                                        
E|--------6-----2--------------------------------------2-----------------------------------------
B|--------7-----4--------------------------------------2-----------------------------------------
G|--------8-----4--------------------------------------3-----------------------------------------
D|--------8-----4--------------------------------------4-----------------------------------------
A|--------6-----2--------------------------------------4-----------------------------------------
E|-----------------------------------------------------2-----------------------------------------

                                                                C#                      D#m   
E|--------------------------------------------------------------4-----------------------6-----
B|--------------------------------------------------------------6-----------------------7-----
G|--------------------------------------------------------------6-----------------------8-----
D|--------------------------------------------------------------6-----------------------8-----
A|--------------------------------------------------------------4-----------------------6-----
E|--------------------------------------------------------------------------------------------

          D#          B              
E|--------6-----------2--------------
B|--------8-----------4--------------
G|--------8-----------4--------------
D|--------8-----------4--------------
A|--------6-----------2--------------
E|-----------------------------------

tabs and chords, guitar tabs, music transcription, music technology, deep learning, music information retrieval, transcribe into tabs & chords, chordify, music renditions, songsterr, reverbnation, tabulature, bollywood chords, ultimate guitar, yousician, guitar lessons, acoustic guitar, electric guitar, guitar tuner, 911 tabs