Guitar Tabs for Zero (part 2)

(/) Slide Up  (\) Slide Down  (h) Hammer On  (p) Pull Off  (b) Bend (r) Release (v) Vibrato (x) Muted

Tabs & Chords
BPM : 117.0
Check Track 2 for Chord Positions 

          B                                                                                F# 
E|--------------------------------------------------------------------------------------------
B|-----------------------------------------------------0--------------------------------------
G|--------------------------------------------------3-----------------------------3--3--------
D|--4-----3-----3--1--------------------1--0--4-----------------------------4--------------4--
A|-----------------------4-----2--2--2-----------------------2--2-----2-----------------------
E|--------------------------------------------------------------------------------------------

                                                                   C#                         
E|--------------------------------------------------------------------------------------------
B|-----------------------------------------------------------------0--------------------------
G|--------------------------------------------------------3-----3-----------------------------
D|-----3-----1-----------------4-----3-----1--------------------------3-----3--4--3--3--3-----
A|--------------------3--------------------------4--4-----------------------------------------
E|--------------2--2--------2-----------------------------------------------------------------

    D#m      D#       B                          F#                               C#             
E|-----------------------------------------------------------------------------------1-----------
B|-----------------------------------------0-----------------------------------------------------
G|-----------------------------------------------------------3-----3-----3--3--------------------
D|--1--3--4--4--3-----1-----0-----4--4-----------------4--------------------------3-----3-----3--
A|-----------------------------------------------------------------------------------------------
E|-----------------------------------------------2-----------------------------------------------

                D#m
E|-----------------
B|-----------------
G|-----------------
D|-----3--3-----0--
A|-----------------
E|-----------------

Guitar Tabs for Zero (part 2)






          B                                                                                F# 
E|--------2--------------------------------------------------------------------------------2--
B|--------4--------------------------------------------------------------------------------2--
G|--------4--------------------------------------------------------------------------------3--
D|--------4--------------------------------------------------------------------------------4--
A|--------2--------------------------------------------------------------------------------4--
E|-----------------------------------------------------------------------------------------2--

                                                                   C#                         
E|-----------------------------------------------------------------4--------------------------
B|-----------------------------------------------------------------6--------------------------
G|-----------------------------------------------------------------6--------------------------
D|-----------------------------------------------------------------6--------------------------
A|-----------------------------------------------------------------4--------------------------
E|--------------------------------------------------------------------------------------------

    D#m      D#       B                          F#                               C#             
E|--6--------6--------2--------------------------2--------------------------------4--------------
B|--7--------8--------4--------------------------2--------------------------------6--------------
G|--8--------8--------4--------------------------3--------------------------------6--------------
D|--8--------8--------4--------------------------4--------------------------------6--------------
A|--6--------6--------2--------------------------4--------------------------------4--------------
E|-----------------------------------------------2-----------------------------------------------

                D#m
E|--------------6--
B|--------------7--
G|--------------8--
D|--------------8--
A|--------------6--
E|-----------------

tabs and chords, guitar tabs, music transcription, music technology, deep learning, music information retrieval, transcribe into tabs & chords, chordify, music renditions, songsterr, reverbnation, tabulature, bollywood chords, ultimate guitar, yousician, guitar lessons, acoustic guitar, electric guitar, guitar tuner, 911 tabs