Guitar Tabs for Zero (part 1)

(/) Slide Up  (\) Slide Down  (h) Hammer On  (p) Pull Off  (b) Bend (r) Release (v) Vibrato (x) Muted

Tabs & Chords
BPM : 89.0
Check Track 2 for Chord Positions 

                         B        F#                                                          
E|-----1-----0-----------2--2-----------------------------------------------------------------
B|-----------------4--------------------------------------------------------------------------
G|--------------------------------------------------------------------------------------------
D|-----------------------------------------------------------4-----3--4--------------------4--
A|--------------------------------------------------------------------------------------------
E|--------------------------------2-----2--2--2--2--2-----2--------------2--2-----2--2--2-----

                                                                            C#                
E|--------------------------------------------------------------------------------------------
B|--------------------------------------------------------------------------------------------
G|--------------------------------------------------------------------------------------------
D|-----4-----4-----4--------4--1--4-----------4-----4--4--1-----------4-----3--1-----------4--
A|-----------------------------------------------------------4--4--------------------4--4-----
E|--2--------------------2--------------2-----------------------------------------------------

    D#                      F# 
E|-----------------------------
B|-----------------------------
G|-----------------------------
D|--4--4--3--3--1-----------4--
A|--------------------4--4-----
E|-----------------------------

Guitar Tabs for Zero (part 1)






                         B        F#                                                          
E|-----------------------2--------2-----------------------------------------------------------
B|-----------------------4--------2-----------------------------------------------------------
G|-----------------------4--------3-----------------------------------------------------------
D|-----------------------4--------4-----------------------------------------------------------
A|-----------------------2--------4-----------------------------------------------------------
E|--------------------------------2-----------------------------------------------------------

                                                                            C#                
E|--------------------------------------------------------------------------4-----------------
B|--------------------------------------------------------------------------6-----------------
G|--------------------------------------------------------------------------6-----------------
D|--------------------------------------------------------------------------6-----------------
A|--------------------------------------------------------------------------4-----------------
E|--------------------------------------------------------------------------------------------

    D#                      F# 
E|--6-----------------------2--
B|--8-----------------------2--
G|--8-----------------------3--
D|--8-----------------------4--
A|--6-----------------------4--
E|--------------------------2--

tabs and chords, guitar tabs, music transcription, music technology, deep learning, music information retrieval, transcribe into tabs & chords, chordify, music renditions, songsterr, reverbnation, tabulature, bollywood chords, ultimate guitar, yousician, guitar lessons, acoustic guitar, electric guitar, guitar tuner, 911 tabs