Guitar Tabs for Zero (part 4)

(/) Slide Up  (\) Slide Down  (h) Hammer On  (p) Pull Off  (b) Bend (r) Release (v) Vibrato (x) Muted

Tabs & Chords
BPM : 89.0
Check Track 2 for Chord Positions 

             B                                                     F#                            
E|--------------------------------------------------------------------2--------------------------
B|--------------------------------------------------------0--------------------------------------
G|-----------------------------------------------------------3-----------------------------------
D|-----------------------------------------------1--4--4-----------3--------------------------1--
A|--2--1-----1--2-----2--2--2--2--2--2--2--2--2--------------------------------------------------
E|--------------------------------------------------------------------------2--2-----2--2--------

                                     C#                         D#       D#m      B              
E|--------------------------------------------------------------5--------------------------------
B|--------------------------------------------------------------------------------------------0--
G|--------------------3-----3-----3--------------------------------------------------------------
D|-----------------4-----------------3-----3--4--3--3-----3--4-----1--3--4--4-----0--------------
A|--4-----------------------------------------------------------------------------------2--------
E|--------2--2-----------------------------------------------------------------------------------

       F#                      C#                D#m                        
E|--------------------------------------------------------------------------
B|--0-----------------------------------------------2-----------------------
G|-----------------2--3--3--------------------------------------------------
D|--------4--4-----------------3-----3-----3-----4--------3-----3-----3--0--
A|--------------------------------------------------------------------------
E|-----2--------2-----------------------------------------------------------

Guitar Tabs for Zero (part 4)






             B                                                     F#                            
E|-----------2-----------------------------------------------------2-----------------------------
B|-----------4-----------------------------------------------------2-----------------------------
G|-----------4-----------------------------------------------------3-----------------------------
D|-----------4-----------------------------------------------------4-----------------------------
A|-----------2-----------------------------------------------------4-----------------------------
E|-----------------------------------------------------------------2-----------------------------

                                     C#                         D#       D#m      B              
E|-----------------------------------4--------------------------6--------6--------2--------------
B|-----------------------------------6--------------------------8--------7--------4--------------
G|-----------------------------------6--------------------------8--------8--------4--------------
D|-----------------------------------6--------------------------8--------8--------4--------------
A|-----------------------------------4--------------------------6--------6--------2--------------
E|-----------------------------------------------------------------------------------------------

       F#                      C#                D#m                        
E|-----2-----------------------4-----------------6--------------------------
B|-----2-----------------------6-----------------7--------------------------
G|-----3-----------------------6-----------------8--------------------------
D|-----4-----------------------6-----------------8--------------------------
A|-----4-----------------------4-----------------6--------------------------
E|-----2--------------------------------------------------------------------

tabs and chords, guitar tabs, music transcription, music technology, deep learning, music information retrieval, transcribe into tabs & chords, chordify, music renditions, songsterr, reverbnation, tabulature, bollywood chords, ultimate guitar, yousician, guitar lessons, acoustic guitar, electric guitar, guitar tuner, 911 tabs