Bass Tabs for Zambeeh

(/) Slide Up  (\) Slide Down  (h) Hammer On  (p) Pull Off  (b) Bend (r) Release (v) Vibrato (x) Muted

Tabs for Song :
Song lyrics here
G|-------------------------------------------------
D|--------------------------------------------------
A|--------------------------3--3--3--3--3--3--5--3--
E|--0--0--0--0--0--0--0--0--------------------------

G|-----------------------------------------------------
D|-----------------------------------------------------
A|-----------------------------------------------------
E|--3--3--3--3--3--3--5--3--2--2--2--2--2--2--3--2--0--

G|--------------------------------------------------
D|--------------------------------------------------
A|--------------------------3--3--3--3--3--3--5--3--
E|--0--0--0--0--0--0--0--0--------------------------

G|--------------------------------------------------
D|--------------------------------------------------
A|--------------------------------------------------
E|--3--3--3--3--3--3--5--3--2--2--2--2--2--2--3--2--

Song lyrics here
G|--
D|--
A|--
E|--

Paste any tab in acousterr's tab maker and we'll play it !!!
Now supports capo and sound effects for vibrato/pull-off/hammer/bends/mutes etc !!! Checkout help section
tabs and chords, guitar tabs, music transcription, music technology, deep learning, music information retrieval, transcribe into tabs & chords, chordify, music renditions, songsterr, reverbnation, tabulature, bollywood chords, ultimate guitar, yousician, guitar lessons, acoustic guitar, electric guitar, guitar tuner, 911 tabs