Bass Tabs for Boulevard Of Broken Dreams (bass Arrangement)

(/) Slide Up  (\) Slide Down  (h) Hammer On  (p) Pull Off  (b) Bend (r) Release (v) Vibrato (x) Muted

Tabs for Song : Boulevard of Broken Dreams (Bass Arrangement)
Inspired by Tommy Lee Depp's Youtube arrangement - https://www.youtube.com/watch?v=hS_eAlDayqs

Intro/Interlude
G|-----------13-------17-15----15-12-13-------13-------
D|--------17-------13-------13-------------15----15----
A|-----15-------------------------------13-------------
E|--13----------16-------------------------------------

Verse
G|--------------13-20-17----15-13-15-13-15----15-17-15-13-
D|-----15-15-17-------------------------------------------
A|-----------------------------------------13-------------
E|--13----------------------------------------------------

Chorus x3
G|--------22-20----13----15----13-15-13-15----15-17-15-13-
D|-----15-------------------13----------------------------
A|--16-------------------------------------13-------------
E|--------------16----16----------------------------------
Chorus (Ending)
G|--------22-20----13----21----17-------
D|-----15-------------------------15/17-
A|--16----------------------15----------
E|--------------16----16-----------------------------------------------------------------------------------------------------------------

Paste any tab in acousterr's tab maker and we'll play it !!!
Now supports capo and sound effects for vibrato/pull-off/hammer/bends/mutes etc !!! Checkout help section
tabs and chords, guitar tabs, music transcription, music technology, deep learning, music information retrieval, transcribe into tabs & chords, chordify, music renditions, songsterr, reverbnation, tabulature, bollywood chords, ultimate guitar, yousician, guitar lessons, acoustic guitar, electric guitar, guitar tuner, 911 tabs