Guitar Tabs for Sora Tob Sakana - New Stranger

(/) Slide Up  (\) Slide Down  (h) Hammer On  (p) Pull Off  (b) Bend (r) Release (v) Vibrato (x) Muted

Tabs for Song : New Stranger by Sora Tob Sakana




Capo on 5th fret
D|--0------------------------------7\10----------------------10\14-------------0--------------10-------------------
A|--0--------------------------5-----------------------------------------------3-----0--7--8-----------------------
F|--7--------------0--7--0--4--------------------------11-12-------------------0--------------------------11\7-----
C|--5--------------------------------------7-----7--9--------------12----12----4-----------------0--5--7-----------
G|--3--------0--3--------------------------5-----5-----------------9-----9-----0-----------------------------------
C|-----------------------------------------4-----4-----------------9-----9-----0-----------------------------------

D|-----------------------------0---------------------------7\10----------------------10-14----------------0--------
A|-----------------------------0-----------------------5--------------------------------------------------3--------
F|--------------------------6--7-----------0--7--0--4--------------------------11-12----------------------0--------
C|--9-----8-----7-----4-----4--5-----------------------------------7-----7--9-----------------12----12----4--------
G|--5-----4-----3-----0-----2--3-----0--3--------------------------5-----5--------------------9-----9-----0--------
C|--5-----4-----3-----0--------------------------------------------4-----4--------------------9-----9-----0--------

   (Harm) 
D|--------------------10------------------------|------------------------------------------------5-----------------
A|--5--------------------8-----8----------------|---8-----7--------------------0-----------------------------------
F|--5-----------------------11----11------------|---------------------------------------7--------------12/11-------
C|--5--------7-----7-----------------12---------|---------------4-----5--------------------------------------------
G|-----------5-----5----------------------------|------------------------------------------------------------------
C|-----------5-----5----------------------------|------------------------------------------------------------------

D|-----------------------------------------------------------8-----7-----------10----------------------------------
A|--8-----7-----8-----------------------------0--------------------------8-----------7-----8-----7-----8-----------
F|-----------------------------------------------------7-----------------------------------------------------------
C|--------------------0-----4-----5-----7--------------------------------------------------------------------5-----
G|-----------------------------------------------------------------------------------------------------------------
C|-----------------------------------------------------------------------------------------------------------------

D|-----------------------------------------5--------8--------------7-----5-----------------------7-----5-----------
A|--------------------3--------7--------------------------3--------------------------8-----7-----------------8-----
F|-----------------------------------------------------------------------------7-----------------------------------
C|--4-----5-----7--------------------------------------------------------------------------------------------------
G|-----------------------------------------------------------------------------------------------------------------
C|-----------------------------------------------------------------------------------------------------------------


D|--------------------------------------2----------|---------------------------------------------------------------
A|-------------------------------------------------|---------------------------------------------------------------
F|--------------------------4-----7-----------7----|---------------------------------------------------------------
C|--------------------5----------------------------|---------------------------------------------------------------
G|--2-----5-----7----------------------------------|---------------------------------------------------------------
C|-------------------------------------------------|------2-----2-----4-----5--------2-----2-----2-----4-----5-----

D|--------------------------------------------------------------------------------0--3--7--12-0--3--7--12-0--3--7--
A|-----------------------------------------------------------------------------------------------------------------
F|-----------------------------------------------------------------------------------------------------------------
C|-----------------------------------------------------------------------------------------------------------------
G|-----------------------------------------------------------------------------------------------------------------
C|-----2--------0-----0-----0-----2-----2-----4-----5--------2-----2-----2-----------------------------------------

D|--15\12-7--3--0--------------------------------------------------------------------------------------------------
A|-----------------------------------------------------------------------------------------------------------------
F|-----------------------------------------------------------------------------------------------------------------
C|-----------------------------------------------------------------------------------------------------------------
G|-----------------------------------------------------------------------------------------------------------------
C|-----------------2-----2-----4-----5--------2-----2-----2-----4-----5--------2--------0-----0-----0-----2-----2--

D|-----------------------------------------------------------------------------------------------------------------
A|-----------------------------------------------------------------------------8-----8-----8-----8--------8-----8--
F|-----------------------------------------------------------------------------------------------------------------
C|-----------------------------------------------------------------------------5-----5-----5-----5--------5-----5--
G|-----------------------------------------------------------------------------------------------------------------
C|--4-----5--------2-----2-----2-----4-----5--------2--------0-----0-----0-----------------------------------------

D|-----------------------------------------------------------------------------------------------------------------
A|-----8-----8-----8-----------8-----------8-----8-----8-----8-----8-----8-----8-----------8-----8-----8-----8-----
F|-----------------------------------------------------------------------------------------------------------------
C|-----5-----5-----5-----------5-----------5-----5-----5-----4-----5-----5-----5-----------5-----5-----5-----4-----
G|-----------------------------------------------------------------------------------------------------------------
C|-----------------------------------------------------------------------------------------------------------------

D|--------------------------------------------------12-------------------------------------------------------------
A|--8-----7--------------------------------------12----15----------------------------------------------------------
F|--------------------7-----7-----7-----------12----------12/14-12----12-12-------------5-----5-----4-----5--------
C|--5-----4-----------------------------12-14-------------12/12-12-16----16----------------------------------------
G|--------------------5-----5-----5-----------------------------------------------------3-----3-----2-----3--------
C|-----------------------------------------------------------------------------------------------------------------

D|-----------------------------------------------------------------7-----------------------------------------------
A|--------------------------------------------------------------------------10----------8-----------7--------8-----
F|--7--------9--------9-----8--------9-----11-------------7--------------7-----------7-----------7--------------7--
C|-----------------------------------------------------------------------------------------------------------------
G|--5--------7--------7-----6--------7-----9-----------------------------------------------------------------------
C|-----------------------------------------------------------------------------------------------------------------

D|--10----------------------------10----------------------------------------------7--------------------------------
A|--------------------10----------------------------8--------7--------------------------------10----------8--------
F|-----------7-----------------7-----------7--------------------7--------7-----------------7-----------7-----------
C|-----------------------------------------------------------------------------------------------------------------
G|-----------------------------------------------------------------------------------------------------------------
C|-----------------------------------------------------------------------------------------------------------------

D|--------------------------10----------------------------0--------------0--------2--------3--------3-----3-----3--
A|-----7--------8--------------------------------------0-----------------1--------3--------5--------5-----5-----5--
F|--7--------------7--------------------------7--------------------------2--------4--------5--------5-----5-----5--
C|-----------------------------------9-----------------------------------2--------4--------5--------5-----5-----5--
G|-----------------------------------------------------------------------0--------2--------3--------3-----3-----3--
C|-----------------------------------------------------------------------------------------------------------------

D|-----3-----3-----3--------3--------3--------3-----3-----3-----5--------5--------5----|---------------------------
A|-----5-----5-----5--------4--------4--------4-----4-----4-----7--------7--------7----|---------------------------
F|-----5-----5-----5--------5--------5--------5-----5-----5-----7--------7--------7----|---------------------------
C|-----5-----5-----5--------5--------5--------5-----5-----5-----7--------7--------7----|---9--------9-----9-----9--
G|-----3-----3-----3--------3--------3--------3-----3-----3-----5--------5--------5----|---5--------5-----5-----5--
C|-------------------------------------------------------------------------------------|---5--------5-----5-----5--

D|-----------------------------------------------------------------------------------------------------------------
A|-----------------------------------------------------------------------------------------------------------------
F|-----------------------------------------------------------------------------------------------------------------
C|-----9-----9-----11-------11----11-------11----11----11----7--------7--------7--------7-----7-----7-----9--------
G|-----5-----5-----7--------7-----7--------7-----7-----7-----5--------5--------5--------5-----5-----5-----5--------
C|-----5-----5-----7--------7-----7--------7-----7-----7-----4--------4--------4--------4-----4-----4-----5--------

D|-----------------------------------------------------------------------------------------------------------------
A|-----------------------------------------------------------------------------------------------------------------
F|-----------------------------------------------------------------------------------------------------------------
C|--9-----9--------9-----9-----9--------5--------5--------5-----5-----5-----7--------7-----7--------7-----7-----7--
G|--5-----5--------5-----5-----5--------2--------2--------2-----2-----2-----4--------4-----4--------4-----4-----4--
C|--5-----5--------5-----5-----5--------2--------2--------2-----2-----2-----4--------4-----4--------4-----4-----4--

D|--0--------0--------0--------0--------0--------0--------------------------------------------------------7--------
A|--7--------7--------5--------5--------7--------7--------------------------------10----------------------------10-
F|--7--------7--------6--------6--------7--------7--------------7-----9-----11----------9-----7--------------------
C|--7--------7--------7--------7--------7--------7--------9-----------------------------------------11-------------
G|--5--------5--------4--------4--------5--------5-----------------------------------------------------------------
C|-----------------------------------------------------------------------------------------------------------------

D|-----------------------------------------------------------------------------------------------------------------
A|-----------------------------------10-------10----10----10----10----10----9--------9-----9--------9-----9-----9--
F|-----7-----------7-----------------------------------------------------------------------------------------------
C|-----------11----------------------7--------7-----7-----7-----7-----7-----6--------6-----6--------6-----6-----6--
G|-----------------------7-----5-----------------------------------------------------------------------------------
C|-----------------------------------------------------------------------------------------------------------------

D|-----------------------------------------------------------------------------------------------------------------
A|-----------------------------------------------------------------------------------------------------------------
F|-----------------------------------------------------------------------------------------------------------------
C|--9--------9--------9-----9-----9-----11-------11----11-------11----11----11-------4--------4--------4-----4-----
G|--5--------5--------5-----5-----5-----7--------7-----7--------7-----7-----7--------0--------0--------0-----0-----
C|--5--------5--------5-----5-----5-----7--------7-----7--------7-----7-----7--------0--------0--------0-----0-----

D|-----------------------------------------------------3--------3--------3-----3-----3-----3--------3-----3-----3--
A|-----------------------------------------------------5--------5--------5-----5-----5-----4--------4-----4-----4--
F|-----------------------------------------------------5--------5--------5-----5-----5-----5--------5-----5-----5--
C|--4-----4--------4-----4--------4-----4-----4--------5--------5--------5-----5-----5-----5--------5-----5-----5--
G|--0-----2--------2-----2--------2-----2-----2--------3--------3--------3-----3-----3-----3--------3-----3-----3--
C|--0-----1--------1-----1--------1-----1-----1--------------------------------------------------------------------

D|-----3-----3-----3----|
A|-----4-----4-----4----|
F|-----5-----5-----5----|
C|-----5-----5-----5----|
G|-----3-----3-----3----|
C|----------------------|

D|--0-------------------------------7\10----------------------10\14-------------0--------------10------------------
A|--0-----------------------5-----------------------------------------------3-----0--7--8--------------------------
F|--7-----------0--7--0--4--------------------------11-12-------------------0--------------------------11\7--------
C|--5-----------------------------------7-----7--9--------------12----12----4-----------------0--5--7--------------
G|--3-----0--3--------------------------5-----5-----------------9-----9-----0--------------------------------------
C|--------------------------------------4-----4-----------------9-----9-----0--------------------------------------

D|-----------------------------0---------------------------7\10----------------------10-14----------------0--------
A|-----------------------------0-----------------------5--------------------------------------------------3--------
F|--------------------------6--7-----------0--7--0--4--------------------------11-12----------------------0--------
C|--9-----8-----7-----4-----4--5-----------------------------------7-----7--9-----------------12----12----4--------
G|--5-----4-----3-----0-----2--3-----0--3--------------------------5-----5--------------------9-----9-----0--------
C|--5-----4-----3-----0--------------------------------------------4-----4--------------------9-----9-----0--------

D|--------------------0----------------------|
A|--------------------3----------------------|
F|--------------------0----------------------|
C|--10----9-----------4----------------------|
G|--5-----5-----------5----------------------|
C|--5-----5-----------0----------------------|





Use manual mode to free up cursor. Paste any tab in acousterr tab maker and we'll play it !!!
D|--
A|--
F|--
C|--
G|--
C|--


tabs and chords, guitar tabs, music transcription, music technology, deep learning, music information retrieval, transcribe into tabs & chords, chordify, music renditions, songsterr, reverbnation, tabulature, bollywood chords, ultimate guitar, yousician, guitar lessons, acoustic guitar, electric guitar, guitar tuner, 911 tabs