Guitar Tabs for Way Down We Go Solo (better-ish)

Tempo isn't right, it's around 74, 76 bpm, good luck (Also all bends are quick release)
E|-----------------------------------------------------------------------------------------------------------------------------------------
B|--------------------6--------------------------------------------------------------6-----------------------------------------11----------
G|-----------6-----------8-----6---8b-9r8--6-----------------6--------------------------8-----6---8b-9r8--6---------------8\10----10-6-----
D|------6h8-----8-----------------------------8---6h8-----------8---6h8--------------------------------------8---6h8--------------------8--
A|--8--------------------------------------------------------------------8--6--------------------------------------------------------------
E|-----------------------------------------------------------------------------8-----------------------------------------------------------


Second part of the solo, there is a bit of a pause between the two, roughly 2 bars maybe 3 
E|-----------------------------------------------------------------------------------------------------13----13-
B|--------11-14-11----11----------11-14b16-14-11----11----------11-14-11----11----------11-14-11----11----------
G|--10-13----------13-------10-13----------------13-------10-13----------13-------10-13----------13-------------
D|--------------------------------------------------------------------------------------------------------------
A|--------------------------------------------------------------------------------------------------------------
E|--------------------------------------------------------------------------------------------------------------


E|--------------------------------------------------------------------------------------------------
B|--------11-14b16r14-11----11----------11-14-11----11----------11-14-11----11----------------------
G|--10-13----------------13-------10-13----------13-------10-13----------13----------10/8--8-----8--
D|-----------------------------------------------------------------------------------------8-----8--
A|-----------------------------------------------------------------------------------------6-----6--
E|--------------------------------------------------------------------------------------------------

E|-------------------------------------------------------------- 
B|--------11-14-11----11----------11----------------------------
G|--10-13----------13-------10-13----13-10----------------------
D|-----------------------------------------11-13-------11-------
A|-----------------------------------------------11h13----11b13-
E|--------------------------------------------------------------







Just a little note real quick, the song is in drop d and I don't entirely know what I'm doing so this tab might be bad, huge emphasis on "might"
tabs and chords, guitar tabs, music transcription, music technology, deep learning, music information retrieval, transcribe into tabs & chords, chordify, music renditions, songsterr, reverbnation, tabulature, bollywood chords, ultimate guitar, yousician, guitar lessons, acoustic guitar, electric guitar, guitar tuner, 911 tabs