Guitar Tabs for Believer - Imagine Dragons

(/) Slide Up  (\) Slide Down  (h) Hammer On  (p) Pull Off  (b) Bend (r) Release (v) Vibrato (x) Muted

Tabs for Song : 
E|-----1--------------------1--------------------1--------------------1--------------------6--1-----1--------------------6--5--
B|--------4--4--2-----4--4-----4--2-----------------4--4--2-----4--4-----4--2-----------2--------------4--2-----------2--------
G|--3--------------------------------3--1--3-----------------------------------3--1--3-----------------------3--1--3-----------
D|-----------------------------------------------------------------------------------------------------------------------------
A|-----------------------------------------------------------------------------------------------------------------------------
E|-----------------------------------------------------------------------------------------------------------------------------

E|--------1--------------------------1--------------------1--1--------------------1--------------------6--1-----1--------------------6--5--
B|-----------4--4--4--2-----4--4--4-----4--2--------------------4-----4--2--4--4-----4--2-----------2--------------4--2-----------2--------
G|--3--3--------------------------------------3--1--3--------------------------------------3--1--3-----------------------3--1--3-----------
D|-----------------------------------------------------------------------------------------------------------------------------------------
A|-----------------------------------------------------------------------------------------------------------------------------------------
E|-----------------------------------------------------------------------------------------------------------------------------------------

E|--------------------------------------------------------------------------------------------------------------------------------
B|-----------------------------------------------------------------2--2--2--2--2--2--2--2--2--1--1--1--1--1--1--1--1--1--1--1--1--
G|--3--3--3--3-----3--3--3--3--3--3--3--3--3--3--3--3--3--3--3--3-----------------------------------------------------------------
D|--------------------------------------------------------------------------------------------------------------------------------
A|--------------------------------------------------------------------------------------------------------------------------------
E|--------------------------------------------------------------------------------------------------------------------------------

E|--------------------------------------------------------------------------------------
B|--------------------------------------------------2--2--2--2--2--2--2--2--1--1--1--1--
G|--3--3--3--3--3--3--3--3--3--3--3--3--3--3--3--3--------------------------------------
D|--------------------------------------------------------------------------------------
A|--------------------------------------------------------------------------------------
E|--------------------------------------------------------------------------------------

E|-----6-----------------------------------x-----------x-----6-----------------------------------x-----------x--
B|-----------2--2--1-----2--2--1--------2--x--2--1-----x-----------2--2--1-----2--2--1--------2--x--2--1-----x--
G|--3-----3-----------3-----------3--3-----x--------2--x--3-----3-----------3-----------3--3-----x--------2--x--
D|-----------------------------------------x-----------x-----------------------------------------x-----------x--
A|-----------------------------------------x-----------x-----------------------------------------x-----------x--
E|-----------------------------------------x-----------x-----------------------------------------x-----------x--

E|--1--------------------------------1-----------------------------------------6-----------------------------------x-----------x--
B|--------2--4--2--4--2--4--2--4--2--------2--4-----2--4-----2--4-----2--4-----------2--2--1-----2--2--1--------2--x--2--1-----x--
G|-----3--------------------------------3-----------------------------------3-----3-----------3-----------3--3-----x--------2--x--
D|-----------------------------------------------------------------------------------------------------------------x-----------x--
A|-----------------------------------------------------------------------------------------------------------------x-----------x--
E|-----------------------------------------------------------------------------------------------------------------x-----------x--

E|-----1-----------------1-----------------1--1--------------------1--------------------6--1--1--------------------6--5--
B|--------4--4--2--4--4-----4--2-----------------4--4--2--4--2--4-----4--2-----------2-----------4--2-----------2--------
G|--3-----------------------------3--1--3-----------------------------------3--1--3--------------------3--1--3-----------
D|-----------------------------------------------------------------------------------------------------------------------
A|-----------------------------------------------------------------------------------------------------------------------
E|-----------------------------------------------------------------------------------------------------------------------

E|-----------------------------------------------------------------------------------------------------------------------------------------------------------------------------------------------
B|--------------------------------------------------------2--2--2--2--2--2--2--2--1--1--1--1--1--------2--------2--------2--2--2--2--2--2--2--------2--------2--2--2--2--2--2--2--1--2--2--1-----
G|--3--3--3--3--3--3--3--3--3--3--3--3--3--3--3--3--3--3-----------------------------------------3--3-----3--3-----3--3-----------------------3--3-----3--3-----------------------------------2--
D|-----------------------------------------------------------------------------------------------------------------------------------------------------------------------------------------------
A|-----------------------------------------------------------------------------------------------------------------------------------------------------------------------------------------------
E|-----------------------------------------------------------------------------------------------------------------------------------------------------------------------------------------------

E|-----6-----------------------------------x-----------x-----6-----------------------------------x-----------x--
B|-----------2--2--1-----2--2--1--------2--x--2--1-----x-----------2--2--1-----2--2--1--------2--x--2--1-----x--
G|--3-----3-----------3-----------3--3-----x--------2--x--3-----3-----------3-----------3--3-----x--------2--x--
D|-----------------------------------------x-----------x-----------------------------------------x-----------x--
A|-----------------------------------------x-----------x-----------------------------------------x-----------x--
E|-----------------------------------------x-----------x-----------------------------------------x-----------x--

E|--1--------------------------------1--------------------------------6-----------------------------------x-----------x--
B|--------2--4--2--4--2--4--2--4--2--------2--4--2--4--2--4--2--4-----------2--2--1-----2--2--1--------2--x--2--1-----x--
G|-----3--------------------------------3--------------------------3-----3-----------3-----------3--3-----x--------2--x--
D|--------------------------------------------------------------------------------------------------------x-----------x--
A|--------------------------------------------------------------------------------------------------------x-----------x--
E|--------------------------------------------------------------------------------------------------------x-----------x--

E|-----1-----------------1-----------------1--1-----------------1--------------------6--1--1--------------------6--5--
B|--------4--4--2--4--4-----4--2-----------------4--4--2--4--4-----4--2-----------2-----------4--2-----------2--------
G|--3-----------------------------3--1--3--------------------------------3--1--3--------------------3--1--3-----------
D|--------------------------------------------------------------------------------------------------------------------
A|--------------------------------------------------------------------------------------------------------------------
E|--------------------------------------------------------------------------------------------------------------------

E|--------------------------------------------------------------------------------------------------
B|--------2--------2--------2--2--2--2--2--2--2--------2--------2--2--2--2--2--2--2--1--2--2--1-----
G|--3--3-----3--3-----3--3-----------------------3--3-----3--3-----------------------------------2--
D|--------------------------------------------------------------------------------------------------
A|--------------------------------------------------------------------------------------------------
E|--------------------------------------------------------------------------------------------------

E|-----6-----------------------------------x-----------x-----6-----------------------------------x-----------x--
B|-----------2--2--1-----2--2--1--------2--x--2--1-----x-----------2--2--1-----2--2--1--------2--x--2--1-----x--
G|--3-----3-----------3-----------3--3-----x--------2--x--3-----3-----------3-----------3--3-----x--------2--x--
D|-----------------------------------------x-----------x-----------------------------------------x-----------x--
A|-----------------------------------------x-----------x-----------------------------------------x-----------x--
E|-----------------------------------------x-----------x-----------------------------------------x-----------x--

E|--1--------------------------------1--------------------------------6-----------------------------------x-----------x--
B|--------2--4--2--4--2--4--2--4--2--------2--4--2--4--2--4--2--4-----------2--2--1-----2--2--1--------2--x--2--1-----x--
G|-----3--------------------------------3--------------------------3-----3-----------3-----------3--3-----x--------2--x--
D|--------------------------------------------------------------------------------------------------------x-----------x--
A|--------------------------------------------------------------------------------------------------------x-----------x--
E|--------------------------------------------------------------------------------------------------------x-----------x--






tabs and chords, guitar tabs, music contests, music covers, songsterr, reverbnation, renditions, tabulature, bollywood chords, ultimate guitar, yousician, guitar lessons, torrins, fender, gibson, acoustic guitar, electric guitar, youtube covers, gootar, guitar tuner, A-Z tabs, 911 tabs