Guitar Tabs for Zalikha Intro

(/) Slide Up  (\) Slide Down  (h) Hammer On  (p) Pull Off  (b) Bend (r) Release (v) Vibrato (x) Muted

Tabs for Song : 

Song lyrics here
E|-----------------------------------------------------------------------------
B|-----------------------------------------------------------------------------
G|-----------------12----10h12-10-------------------------10-----9h10-9--------
D|--10-10-10-12-14----------------14-12----9--9--9--10-12----------------12-10-
A|-----------------------------------------------------------------------------
E|-----------------------------------------------------------------------------

E|-----------------------------------------------------
B|-----------------------------------------------------
G|-----------------9------7h9--7-----------------------
D|--7--7--7--9--10----------------10-9-----9--9--10-9--
A|-----------------------------------------------------
E|-----------------------------------------------------

Song lyrics here
E|--------------------------------------------------------------------------------
B|-----------------8------6h8--6--------------------------6------5h6--5-----------
G|--5--5--5--7--9-----------------9--7-----4--4--4--5--7-----------------7--5-----
D|--------------------------------------------------------------------------------
A|--------------------------------------------------------------------------------
E|--------------------------------------------------------------------------------

E|--------------------------------------------------
B|-----------------5------3h5--3--------------------
G|--2--2--2--4--5-----------------5-----4--4--5--4--
D|--------------------------------------------------
A|--------------------------------------------------
E|--------------------------------------------------

Paste any tab in acousterr's tab maker and we'll play it !!!
Now supports capo and sound effects for vibrato/pull-off/hammer/bends/mutes etc !!! Checkout help section
tabs and chords, guitar tabs, music transcription, music technology, deep learning, music information retrieval, transcribe into tabs & chords, chordify, music renditions, songsterr, reverbnation, tabulature, bollywood chords, ultimate guitar, yousician, guitar lessons, acoustic guitar, electric guitar, guitar tuner, 911 tabs