Guitar Tabs for Pulanglah

(/) Slide Up  (\) Slide Down  (h) Hammer On  (p) Pull Off  (b) Bend (r) Release (v) Vibrato (x) Muted

Tabs for Song : 
BPM : 200

Intro
E|--------------------------------------------------------------------------------------
B|--------10-10\12----10----------------------------------------------------------------
G|--11-12----------------12-11----9--11-12-9--11----11-12-9--11----------------11-9-----
D|--------------------------------------------------------------12----11-11-12----------
A|--------------------------------------------------------------------------------------
E|--------------------------------------------------------------------------------------

E|--------------------------------------------------------7-----
B|-----------------------------------------7-----8--7--8-----10-
G|--11\12-11-9--------------------------9-----------------------
D|--------------12-11-9--11-12-----5\7--------------------------
A|--------------------------------------------------------------
E|--------------------------------------------------------------
Verse 1
E|--------------------------------------------------------------------------
B|---8\10-12-------7--8---8\10-------10-10-8--10\12----10-8--7-----7---7\5--
G|-----------12-9-----------------------------------------------7-----------
D|--------------------------------------------------------------------------
A|--------------------------------------------------------------------------
E|--------------------------------------------------------------------------

E|--------------------------------------------------------------------------------------------------
B|--------7---7\8-----7--8-----7--7--------------------------7--7--10\8-----7-----------------------
G|---6\9------------------------------9\11-----9p11-9--------------------------9-----7--6--7---7\9--
D|-----------------------------------------------------12-------------------------------------------
A|--------------------------------------------------------------------------------------------------
E|--------------------------------------------------------------------------------------------------

E|--------------------------------------------------------------------------
B|---8\10-12-------7--8---8\10-------10-10-8--10\12----10-8--7-----7---7\5--
G|-----------12-9-----------------------------------------------7-----------
D|--------------------------------------------------------------------------
A|--------------------------------------------------------------------------
E|--------------------------------------------------------------------------

E|--------------------------------------------------------------------------------------------
B|--------7---7\8-----7--8-----7--7--------------------------7--7--10\8-----7-----8--7--------
G|---6\9------------------------------9\11-----9p11-9--------------------------9--------9--7--
D|-----------------------------------------------------12-------------------------------------
A|--------------------------------------------------------------------------------------------
E|--------------------------------------------------------------------------------------------

Verse 2

E|--------------------------------------------------------------------------------
B|-----13b13----14-12----10-12\14-10-12-------10\12----14b14----12-10----------10-
G|--------------------------------------------------------------------12-11-12----
D|--12----------------------------------------------------------------------------
A|--------------------------------------------------------------------------------
E|--------------------------------------------------------------------------------

E|--------------------------------------------------------------------------------
B|--12-13-15----------12-14b14----14p15-14-------12-12-------------9--10-12-14-10-
G|---------------9\11----------------------16----------14-13-9--11----------------
D|--------------------------------------------------------------------------------
A|--------------------------------------------------------------------------------
E|--------------------------------------------------------------------------------

Verse 3

E|--------------------------------------------------------------------------
B|---8\10-12-------7--8---8\10-------10-10-8--10\12----10-8--7-----7---7\5--
G|-----------12-9-----------------------------------------------7-----------
D|--------------------------------------------------------------------------
A|--------------------------------------------------------------------------
E|--------------------------------------------------------------------------

E|--------------------------------------------------------------------------------------------
B|--------7---7\8-----7--8-----7--7--------------------------7--7--10\8-----7-----8--7--------
G|---6\9------------------------------9\11-----9p11-9--------------------------9--------9--7--
D|-----------------------------------------------------12-------------------------------------
A|--------------------------------------------------------------------------------------------
E|--------------------------------------------------------------------------------------------

Solo

E|-----------------------------------------------------------------10--9p10-9--------------------------
B|--------10-12----10-------------------------------------10-12----------------12-10----10----------10-
G|--11-12-------------12-11----9--11-12-9--11-------11-12----------------------------------12-11-12----
D|-----------------------------------------------------------------------------------------------------
A|-----------------------------------------------------------------------------------------------------
E|-----------------------------------------------------------------------------------------------------

E|--------------------------------------------------------------------------
B|-----------------------------------12-10-12----10-------------------------
G|--------9-----9--11-12-------11-12----------12----11-------11-12-9--11----
D|---9\12----12----------------------------------------------------------12-
A|--------------------------------------------------------------------------
E|--------------------------------------------------------------------------

E|--------------------------------------------
B|--------------------------------------------
G|--------11-9-----11\12-11-9-----------------
D|--11-12----------------------12-11-9--11-12-
A|--------------------------------------------
E|--------------------------------------------

Verse 4

E|--------------------------------------------------------------------------
B|---8\10-12-------7--8---8\10-------10-10-8--10\12----10-8--7-----7---7\5--
G|-----------12-9-----------------------------------------------7-----------
D|--------------------------------------------------------------------------
A|--------------------------------------------------------------------------
E|--------------------------------------------------------------------------

E|--------------------------------------------------------------------------------------------
B|--------7---7\8-----7--8-----7--7--------------------------7--7--10\8-----7-----8--7--------
G|---6\9------------------------------9\11-----9p11-9--------------------------9--------9--7--
D|-----------------------------------------------------12-------------------------------------
A|--------------------------------------------------------------------------------------------
E|--------------------------------------------------------------------------------------------

Outro

E|--------------------------------------------------------------------------------------------
B|--------7---7\8-----7--8-----7--7--------------------------7--7--10\8-----7-----8--7--------
G|---6\9------------------------------9\11-----9p11-9--------------------------9--------9--7--
D|-----------------------------------------------------12-------------------------------------
A|--------------------------------------------------------------------------------------------
E|--------------------------------------------------------------------------------------------

E|--------------10-9--10-12-9--10-
B|--------10-12-------------------
G|--11-12-------------------------
D|--------------------------------
A|--------------------------------
E|--------------------------------

tabs and chords, guitar tabs, music transcription, music technology, deep learning, music information retrieval, transcribe into tabs & chords, chordify, music renditions, songsterr, reverbnation, tabulature, bollywood chords, ultimate guitar, yousician, guitar lessons, acoustic guitar, electric guitar, guitar tuner, 911 tabs