Guitar Tabs for Titian Hasrat

(/) Slide Up  (\) Slide Down  (h) Hammer On  (p) Pull Off  (b) Bend (r) Release (v) Vibrato (x) Muted

Tabs for Song :

Intro :
E|--------------------------------------------------------------------
B|--15----13----11-13-11-10-------10-10h11-10-------------------------
G|-----14----------------------12----------------10-9-----7--6---6\7--
D|--------------------------------------------------------------------
A|--------------------------------------------------------------------
E|--------------------------------------------------------------------

E|-----------12-12h13-12-------17-
B|--------15----------------------
G|--10\14-------------------------
D|--------------------------------
A|--------------------------------
E|--------------------------------

Solo :
E|--------------------------------------------------------------------------------
B|--------------------------------------------------------13b13-11-13b13----------
G|---7/9--10----9------5\7--7------5\7---9p10-9--7--5--------------------14-------
D|-----------12-------------------------------------------------------------15----
A|--------------------------------------------------------------------------------
E|--------------------------------------------------------------------------------

E|--------------------------------------------------------------------------------
B|-----------------------------------8---6h5-----------------5--6---5h6--5--------
G|-----------------------------9--------------7--------5--7-----------------7--7--
D|--5-----7---7p8--7--5-----------------------------------------------------------
A|-----------------------5--------------------------------------------------------
E|--------------------------------------------------------------------------------

E|-----------------------------------------------------------------------------------------------------------10b10-
B|--------------5--6---8\10-10----------10-11-10-11-11\13----11p13-11----10-11----10----11----10p11-10----10-------
G|-----5-----7-----------------------12----------------------------------------------------------------12----------
D|--7--------------------------------------------------------------------------------------------------------------
A|-----------------------------------------------------------------------------------------------------------------
E|-----------------------------------------------------------------------------------------------------------------

E|-----------------------------------------------------------------------------------13-
B|--------------------------------------------------------11-10----13-11----15----------
G|--10-9-----10-9--10----9--------------10-9-----12-10----------------------------------
D|--------------------------10-10\12----------------------------------------------------
A|--------------------------------------------------------------------------------------
E|--------------------------------------------------------------------------------------

Paste any tab in acousterr's tab maker and we'll play it !!!
Now supports capo and sound effects for vibrato/pull-off/hammer/bends/mutes etc !!! Checkout help section
tabs and chords, guitar tabs, music transcription, music technology, deep learning, music information retrieval, transcribe into tabs & chords, chordify, music renditions, songsterr, reverbnation, tabulature, bollywood chords, ultimate guitar, yousician, guitar lessons, acoustic guitar, electric guitar, guitar tuner, 911 tabs