Guitar Tabs for Bila Cinta Didusta Intro

(/) Slide Up  (\) Slide Down  (h) Hammer On  (p) Pull Off  (b) Bend (r) Release (v) Vibrato (x) Muted

Tabs for Song : 

Intro
E|-------------------------------------------------------------------------------
B|--------------6--8---8\-9/8-----------------------------6--8---8\11-9--8--9--
G|-----5--7--8--------------------7--8--5--------5--7--8-----------------------
D|--5-----------------------------------------5--------------------------------
A|-----------------------------------------------------------------------------
E|-----------------------------------------------------------------------------

E|--------10-11-10-------------------------------------------------------------------------
B|--13-13----------13-11-11/13-11----11-11-9--9--8--8--------------------------------------
G|--13-------------------------------------------------10-10-8--8------7h8--7--------------
D|--13-------------------------------------------------------------------------10-8---8\10-
A|-----------------------------------------------------------------------------------------
E|-----------------------------------------------------------------------------------------

Feel 1
E|-----------------------------------------------------------------------
B|------------------------------------------------6\8--8---9\11----11/9--
G|--------10\12-12----10p12-10----12/8--------------------------12-------
D|--8--8-----------------------13----------8--8--------------------------
A|-----------------------------------------------------------------------
E|-----------------------------------------------------------------------

E|-----------------------------------------------------------------------------
B|--------------------------------------------------------------8---8\9---9/8--
G|---------8\10-10-----8p10-8-----10p12-10----10-----------8\10----------------
D|--6--6-----------------------12----------13-------6--6-----------------------
A|-----------------------------------------------------------------------------
E|-----------------------------------------------------------------------------

Feel 2
E|-----------------------------------------
B|---8\9--8---6p8--6--------------6---6/4--
G|--------------------7-----3--3-----------
D|-----------------------------------------
A|-----------------------------------------
E|-----------------------------------------

E|------------------------------------------------------------------------------
B|-----------------------------------------------------------------------------
G|--------10\12-12----10p12-10----------------10\12-12----10p12-10----13\15-13-
D|--8--8-----------------------13/8-----8--8-----------------------------------
A|-----------------------------------------------------------------------------
E|-----------------------------------------------------------------------------

E|-----------------------------------------------------------------------------
B|--------------------------------------------------8--9---9/8-----6--8--6-----
G|---------8\10-10-----8p10-8------------------8\10-------------------------8--
D|--6--6-----------------------12/6-----6--6-----------------------------------
A|-----------------------------------------------------------------------------
E|-----------------------------------------------------------------------------

Solo :
E|--------------------------------------------------------------------------------------------------
B|--------------6--8--------------------------------------------------------------------------------
G|---7\8--7--8--------5-----------------------------------------------------------------------------
D|--------------------------------10----8-----------------------------------------------------------
A|---------------------------8\10----10----10/8--6---8b6--8------6p8--6--5--6--8---6p8--6--5--------
E|--------------------------------------------------------------------------------------------8--6--

E|-----------------------------------------------------------------------------------------------------
B|-----------------------------------------------8-----------------------13-15-16-15-13h15-13-11-11\13-
G|-----------------------8--10\12----12/10-8--10----10-8-----------10\12-------------------------------
D|-----------------8--10----------------------------------10-10----------------------------------------
A|--------6---8\10-------------------------------------------------------------------------------------
E|---6h8-----------------------------------------------------------------------------------------------

E|-----------------------11\13-13-------13-15-15----11h13-11----11----------------------------
B|--------13-15-16-15-13-------------13----------------------13----13-11-13----11h13-11----11-
G|--10\12-------------------------------------------------------------------------------12----
D|--------------------------------------------------------------------------------------------
A|--------------------------------------------------------------------------------------------
E|--------------------------------------------------------------------------------------------

E|-----------------------------------------------------------------
B|-----------11----8-----------------------11----------11----------
G|------8\12----12----10-8--10-8--10-10\12--------8\12----10-12----
D|--------------------------------------------------------------10-
A|-----------------------------------------------------------------
E|-----------------------------------------------------------------

Paste any tab in acousterr's tab maker and we'll play it !!!
Now supports capo and sound effects for vibrato/pull-off/hammer/bends/mutes etc !!! Checkout help section

tabs and chords, guitar tabs, music transcription, music technology, deep learning, music information retrieval, transcribe into tabs & chords, chordify, music renditions, songsterr, reverbnation, tabulature, bollywood chords, ultimate guitar, yousician, guitar lessons, acoustic guitar, electric guitar, guitar tuner, 911 tabs