Guitar Tabs for Lovehunter - Sambutlah Kasih

(/) Slide Up  (\) Slide Down  (h) Hammer On  (p) Pull Off  (b) Bend (r) Release (v) Vibrato (x) Muted

Tabs for Song : 

Song lyrics here
E|--------------------------------------------------------------------------------------------
B|-----12-10----------------12-10----------------12-10----10----------10----------10-12-13-15-
G|--9--------12-11-12----9--------12-11-12----9--------12----11----12----11-12----------------
D|--------------------------------------------------------------------------------------------
A|--------------------------------------------------------------------------------------------
E|--------------------------------------------------------------------------------------------

Song lyrics here
E|------------------------------8p10-8------7p8--7------5p7--5-----------------------------------
B|-----------7--8-----8-----------------------------------------------------7--8--7-----10\12-12-
G|--9--9--9--------9-----------------------------------------------9--9--9-----------9-----------
D|-----------------------------------------------------------------------------------------------
A|-----------------------------------------------------------------------------------------------
E|-----------------------------------------------------------------------------------------------

E|--------------------------------------------------------------------------
B|--------7--8--10b10-8--7------7p8--7--------------------------------------
G|-----9--------------------------------9--7-----9--7-----------12-11-9--7--
D|--9--------------------------------------------------10-9-----------------
A|--------------------------------------------------------------------------
E|--------------------------------------------------------------------------
Solo
E|--------------------------------------------------------------------------------------
B|-----------------------------10-10-10-12----13-13-15----13-13-13-12-12-10-10----10\12-
G|-----------------9--11-12----------------------------------------------------12-------
D|--12-12-12----12----------------------------------------------------------------------
A|--------------------------------------------------------------------------------------
E|--------------------------------------------------------------------------------------

E|--------------------------------------------------------------------
B|--12-12-12-10-10----------------------------------------------------
G|-----------------12-12-11-11-9--11\12----11p12-11----11-12----11-12-
D|--------------------------------------------------14-------14-------
A|--------------------------------------------------------------------
E|--------------------------------------------------------------------

E|--------------------------------------------------------------
B|--------17----13p15-13----10\13-13-12-12----------------------
G|--14\17----------------------------------14-14b14----12-14-16-
D|--------------------------------------------------------------
A|--------------------------------------------------------------
E|--------------------------------------------------------------

E|--------------------------------------------------------------------------------------
B|--------------------------------------------------------------------------------------
G|--14b14----14-12-11----9--9--7--7-----------9-----------------------------------------
D|-----------------------------------10-9--------------------------------------9-----9--
A|-----------------------------------------------------------9--10----9--10-12----12----
E|--------------------------------------------------12-10-12----------------------------

E|-----------------------------------------------------------------
B|-----------------------------------10-10----10\12----13-13-10-12-
G|--------------9--11-------------11-------12----------------------
D|--10-12-10-12-------------12-12----------------------------------
A|-----------------------------------------------------------------
E|-----------------------------------------------------------------

Untrumentak
E|-----------------------------------------------------------------
B|--12-10----10-12----------10-12-13----13-15----13p15-13-12-10----
G|--------12-----------7\9-----------------------------------------
D|-----------------------------------------------------------------
A|-----------------------------------------------------------------
E|-----------------------------------------------------------------

E|--10-10-12-10----------10-10-12-10-------------------------------------
B|--------------10----10----------------13----12p13-12----10-10-8--10-12-
G|-----------------------------------------------------------------------
D|-----------------------------------------------------------------------
A|-----------------------------------------------------------------------
E|-----------------------------------------------------------------------

E|--------------------------------------------------------------------------------------------
B|--10b10-8--7-----------7------8b8--7-----------7--8-----------10----10----------------------
G|--------------9--7--9-----------------9--7--9------------9\11----12----11----9---9\11-9--9--
D|--------------------------------------------------------------------------------------------
A|--------------------------------------------------------------------------------------------
E|--------------------------------------------------------------------------------------------
Outro
E|-----------------------------------------------------------------------------------------------
B|-----------------------------------------------------------------------------------------------
G|-----12-------11-12-14----14----14-12-14\16----------12-------11-12----12----12----12-11-12----
D|--14-------14-------------------------------------12-------14-------------------------------14-
A|-----------------------------------------------------------------------------------------------
E|-----------------------------------------------------------------------------------------------


Paste any tab in acousterr's tab maker and we'll play it !!!
Now supports capo and sound effects for vibrato/pull-off/hammer/bends/mutes etc !!! Checkout help section
tabs and chords, guitar tabs, music transcription, music technology, deep learning, music information retrieval, transcribe into tabs & chords, chordify, music renditions, songsterr, reverbnation, tabulature, bollywood chords, ultimate guitar, yousician, guitar lessons, acoustic guitar, electric guitar, guitar tuner, 911 tabs