Guitar Tabs for Yorma

(/) Slide Up  (\) Slide Down  (h) Hammer On  (p) Pull Off  (b) Bend (r) Release (v) Vibrato (x) Muted

Tabs for Song : 

Song lyrics here
E|-----------------------------------------3-----5--3-----3-----------3-----------------------------------------
B|--3--2--3--5--2--2-----3--2--0--2-----6--------------6-----6--4--------6--4--6--4--3--------3-----6--4--3--3--
G|-----------------------------------------------------------------------------------------5--------------------
D|--------------------------------------------------------------------------------------------------------------
A|--------------------------------------------------------------------------------------------------------------
E|--------------------------------------------------------------------------------------------------------------

Song lyrics here
E|-----3-----5--3-----3--------6--5--3--5--3-----------------------3-----------------3--5--5--6--
B|--6--------------6-----4--------------------6-----4--3--4-----6-----------3--4--6--------------
G|-----------------------------------------------------------------------5-----------------------
D|-----------------------------------------------------------------------------------------------
A|-----------------------------------------------------------------------------------------------
E|-----------------------------------------------------------------------------------------------

E|--8--10-8--6--5--6--5--3-----6--5--3--5--3-----------------------3--------------------------
B|--------------------------------------------6-----4--3--4-----6--------------6--4--3--4--3--
G|-----------------------------------------------------------------------5--5-----------------
D|--------------------------------------------------------------------------------------------
A|--------------------------------------------------------------------------------------------
E|--------------------------------------------------------------------------------------------

Paste any tab in acousterr's tab maker and we'll play it !!!
Now supports capo and sound effects for vibrato/pull-off/hammer/bends/mutes etc !!! Checkout help section
tabs and chords, guitar tabs, music transcription, music technology, deep learning, music information retrieval, transcribe into tabs & chords, chordify, music renditions, songsterr, reverbnation, tabulature, bollywood chords, ultimate guitar, yousician, guitar lessons, acoustic guitar, electric guitar, guitar tuner, 911 tabs