Guitar Tabs for Shape Of You - Ed Sheeran Tabs

(/) Slide Up  (\) Slide Down  (h) Hammer On  (p) Pull Off  (b) Bend (r) Release (v) Vibrato

Shape of you Ed Sheeran Tabs

Intro
E|--------------------------------------
B|--------------------------------------
G|--2--5--2--2--5--2--2--5--2--4--2--0--
D|--------------------------------------
A|--------------------------------------
E|--------------------------------------

E|--------------------------------------
B|--------------------------------------
G|--2--5--2--2--5--2--2--5--2--4--2--0--
D|--------------------------------------
A|--------------------------------------
E|--------------------------------------

The club isn't the best place to find a lover So the bar is where I go
E|--------------------------------------
B|-----------------------------5--5--5--
G|--5--5--5--5--5--5--5--5--5-----------
D|--------------------------------------
A|--------------------------------------
E|--------------------------------------

Me and my friends at the table doing shots Drinking fast and then we talk slow
E|--------------------------------------
B|--5--3--3--3--3--3--3--3--3--1--------
G|--------------------------------2-----
D|--------------------------------------
A|--------------------------------------
E|--------------------------------------

Come over and start up a conversation with just me And trust me I'll give it a chance
E|-----------------------------3--------------------
B|-----3--5--5--5--5--5--5--5-----3--5--3--3--5-----
G|--2-----------------------------------------------
D|--------------------------------------------------
A|--------------------------------------------------
E|--------------------------------------------------

now take my hand, stop, put Van the Man on the jukebox And then we start to dance
E|-----------------------------------------------------
B|--3--5--3--3-----3--3--1--3--3--3--3--3--3--1--------
G|-----------------------------------------------2-----
D|-----------------------------------------------------
A|-----------------------------------------------------
E|-----------------------------------------------------

Girl, you know I want your love Your love was handmade for somebody like me
E|--------------------------------------------------------------
B|-----------------5--3-----1--3--5--3--1-----1--5--3--1--3-----
G|--2--2--2--0--2--------------------------2-----------------2--
D|--------------------------------------------------------------
A|--------------------------------------------------------------
E|--------------------------------------------------------------

Come on now, follow my lead I may be crazy, don't mind me
E|-----------------------------------------
B|--8--5--3--1--------3--5--3--1--3--------
G|-----------------5-----------------5--2--
D|-----------------------------------------
A|-----------------------------------------
E|-----------------------------------------
tabs and chords, guitar tabs, music contests, music covers, songsterr, reverbnation, renditions, tabulature, bollywood chords, ultimate guitar, yousician, guitar lessons, torrins, fender, gibson, acoustic guitar, electric guitar, youtube covers, gootar, guitar tuner, A-Z tabs, 911 tabs