Guitar Tabs for Shape Of You - Ed Sheeran Tabs

(/) Slide Up  (\) Slide Down  (h) Hammer On  (p) Pull Off  (b) Bend (r) Release (v) Vibrato (x) Muted

Tabs & Chords
BPM : 117.0
Check Track 2 for Chord Positions 

Intro
          A                                      C#             A           C#m               
E|--------0--------------0--------------0-----------------------------0--------------0--------
B|-----------------------------------------------4-----------0--------------------------------
G|--6-----------6--6-----------6--6-----------6--------6--------6-----------6--6-----------6--
D|--------------------------------------------------------------------------------------------
A|--------------------------------------------------------------------------------------------
E|--------------------------------------------------------------------------------------------

                                     The club isn't the best place to find a lover ..
                                                       F#m               A        B     F# C#m
E|--------0--------------------------0--0--0--0--0--0--0--0--0--0--0--0--0-----4--4-----7--4--
B|-----------------4-----------0--------------------------------------------7-----------------
G|--6-----------6--------6--------6-----------------------------------------------------------
D|--------------------------------------------------------------------------------------------
A|--------------------------------------------------------------------------------------------
E|--------------------------------------------------------------------------------------------

Me and my friends at the table doing ..                Come over and start up a conversation..
             F#m                                 B     C#                                  F#m
E|--4--4--4-----------4--------0--------------0-----------4--4--4--4--4--4--4--4--4--4--4--4--
B|-----------7--7--7-----7--7-----7--7--7--7--------------------------------------------------
G|-----------------------------------------------6-----6--------------------------------------
D|--------------------------------------------------------------------------------------------
A|--------------------------------------------------------------------------------------------
E|--------------------------------------------------------------------------------------------


                                  now take my hand..
                A                 B           C#m         F#                   F#m            
E|--4--4--7--4--4--------0--4--------0--0--0--0-----7--4--4--4-----------------------------0--
B|-----------------7--7-----------7-----------------------------7--7--7--7--7--7--7--7--7-----
G|--------------------------------------------------------------------------------------------
D|--------------------------------------------------------------------------------------------
A|--------------------------------------------------------------------------------------------
E|--------------------------------------------------------------------------------------------

                Girl, you know I want your love..
                C#                F#       F#m                     F#                C#m      
E|--------------------------------------4--------0-----4-----0-----0--4--------------7-----4--
B|--------------0-----------------0--------7--------7-----7--------------7--7-----------7-----
G|--6--------------6--6--6--6--6-----6--------------------------6--------------6--------------
D|-----6--6--6--------------------------------------------------------------------------------
A|--------------------------------------------------------------------------------------------
E|--------------------------------------------------------------------------------------------


    F#m                              F#                               F#m               F#    
E|-----0--0--------0-----4-----0-----0-----------------------4--------0-----4-----0-----0--4--
B|--7-----------------7-----7-----7--------------------0--------7--------7-----7--------------
G|-----------6--------------------------6--6--6-----6-----6--------------------------6--------
D|--------------------------------------------------------------------------------------------
A|--------------------------------------------------------------------------------------------
E|--------------------------------------------------------------------------------------------

                                                                            I m in love with the ...
                C#m                        F#m                     C#m            F#m         
E|--------------7-----4-----0--0--------7-----4-----0--0-----------------0-----4-----0--0-----
B|--7--7-----------7-----7-----------------7-----7--------------0-----------7-----7--------7--
G|--------6-----------------------6--6--------------------6--------6--------------------------
D|-----------------------------------------------------------6--------------------------------
A|--------------------------------------------------------------------------------------------
E|--------------------------------------------------------------------------------------------

                B        F#             C#m         F#m            D     F#                   C#m
E|-----------0-----4-----0--0--------------0-----4-----0-----------0-----4-----0--------------0--
B|--7-----------7-----7--------7--------------7-----------7--7--------7-----7-----7--------------
G|--------6-----------------------6-----6-----------6-----------------------------------6--------
D|-----------------------------------------------------------------------------------------------
A|-----------------------------------------------------------------------------------------------
E|-----------------------------------------------------------------------------------------------

    last night you were in my room...
       F#m                     F#                C#m            F#       F#m            F#    
E|--4--7--4-----0-----------0-----4-----0--------------------0-----4-----0-----------0-----4--
B|-----------7-----7-----------7-----7-----7--------------------7-----------7--7--------7-----
G|-----------------------6--------------------6--6--6--6--6-----------6-----------------------
D|--------------------------------------------------------------------------------------------
A|--------------------------------------------------------------------------------------------
E|--------------------------------------------------------------------------------------------

                   O aa O aa O aa O aa...
                   C#m         F#m            A        F#             C#m            F#m      
E|-----0-----------------0--0--------4--4-----0-----4-----0-----------------0--0--------4--4--
B|--7-----7--------------------7--7--------------7-----7-----7--------------------7--7--------
G|--------------6--6--6--------------------------------------------6--6--6--------------------
D|--------------------------------------------------------------------------------------------
A|--------------------------------------------------------------------------------------------
E|--------------------------------------------------------------------------------------------


       A        F#             C#m         F#m            A        F#                C#m      
E|-----0-----4-----0-----------------0--0--------4--4-----0-----4-----0-----------------------
B|--------7-----7-----7--------------------7--7--------------7-----7-----7--------------------
G|--------------------------6--6--6--------------------------------------------6-----6--6--6--
D|--------------------------------------------------------------------------------------------
A|--------------------------------------------------------------------------------------------
E|--------------------------------------------------------------------------------------------

                               I m in love with your body...
                F#m            D     B     F#          
E|-----0-----4-----0-----------0-----4-----0--0--------
B|--------7-----------7--7--------7-----7--------7-----
G|--6-----------6-----------------------------------6--
D|-----------------------------------------------------
A|-----------------------------------------------------
E|-----------------------------------------------------

Guitar Tabs for Shape Of You - Ed Sheeran Tabs







          A                                      C#             A           C#m               
E|--------0--------------------------------------4--------------0-----------4-----------------
B|--------2--------------------------------------6--------------2-----------5-----------------
G|--------2--------------------------------------6--------------2-----------6-----------------
D|--------2--------------------------------------6--------------2-----------6-----------------
A|--------0--------------------------------------4--------------0-----------4-----------------
E|--------------------------------------------------------------------------------------------

    
    F#m               A        B     F# C#m
E|-----------------------------------------------------2-----------------0--------2-----2--4--
B|-----------------------------------------------------2-----------------2--------4-----2--5--
G|-----------------------------------------------------2-----------------2--------4-----3--6--
D|-----------------------------------------------------4-----------------2--------4-----4--6--
A|-----------------------------------------------------4-----------------0--------2-----4--4--
E|-----------------------------------------------------2--------------------------------2-----


             F#m                                 B     C#                                  F#m
E|-----------2-----------------------------------2-----4-----------------------------------2--
B|-----------2-----------------------------------4-----6-----------------------------------2--
G|-----------2-----------------------------------4-----6-----------------------------------2--
D|-----------4-----------------------------------4-----6-----------------------------------4--
A|-----------4-----------------------------------2-----4-----------------------------------4--
E|-----------2-----------------------------------------------------------------------------2--



                A                 B           C#m         F#                   F#m            
E|--------------0-----------------2-----------4-----------2--------------------2--------------
B|--------------2-----------------4-----------5-----------2--------------------2--------------
G|--------------2-----------------4-----------6-----------3--------------------2--------------
D|--------------2-----------------4-----------6-----------4--------------------4--------------
A|--------------0-----------------2-----------4-----------4--------------------4--------------
E|--------------------------------------------------------2--------------------2--------------


                C#                F#       F#m                     F#                C#m      
E|--------------4-----------------2--------2-----------------------2-----------------4--------
B|--------------6-----------------2--------2-----------------------2-----------------5--------
G|--------------6-----------------3--------2-----------------------3-----------------6--------
D|--------------6-----------------4--------4-----------------------4-----------------6--------
A|--------------4-----------------4--------4-----------------------4-----------------4--------
E|--------------------------------2--------2-----------------------2--------------------------


    F#m                              F#                               F#m               F#    
E|--2--------------------------------2--------------------------------2-----------------2-----
B|--2--------------------------------2--------------------------------2-----------------2-----
G|--2--------------------------------3--------------------------------2-----------------3-----
D|--4--------------------------------4--------------------------------4-----------------4-----
A|--4--------------------------------4--------------------------------4-----------------4-----
E|--2--------------------------------2--------------------------------2-----------------2-----


                C#m                        F#m                     C#m            F#m         
E|--------------4--------------------------2-----------------------4--------------2-----------
B|--------------5--------------------------2-----------------------5--------------2-----------
G|--------------6--------------------------2-----------------------6--------------2-----------
D|--------------6--------------------------4-----------------------6--------------4-----------
A|--------------4--------------------------4-----------------------4--------------4-----------
E|-----------------------------------------2--------------------------------------2-----------

                B        F#             C#m         F#m            D     F#                   C#m
E|--------------2--------2--------------4-----------2--------------2-----2--------------------4--
B|--------------4--------2--------------5-----------2--------------3-----2--------------------5--
G|--------------4--------3--------------6-----------2--------------2-----3--------------------6--
D|--------------4--------4--------------6-----------4--------------0-----4--------------------6--
A|--------------2--------4--------------4-----------4--------------------4--------------------4--
E|-----------------------2--------------------------2--------------------2-----------------------


       F#m                     F#                C#m            F#       F#m            F#    
E|-----2-----------------------2-----------------4--------------2--------2--------------2-----
B|-----2-----------------------2-----------------5--------------2--------2--------------2-----
G|-----2-----------------------3-----------------6--------------3--------2--------------3-----
D|-----4-----------------------4-----------------6--------------4--------4--------------4-----
A|-----4-----------------------4-----------------4--------------4--------4--------------4-----
E|-----2-----------------------2--------------------------------2--------2--------------2-----


                   C#m         F#m            A        F#             C#m            F#m      
E|-----------------4-----------2--------------0--------2--------------4--------------2--------
B|-----------------5-----------2--------------2--------2--------------5--------------2--------
G|-----------------6-----------2--------------2--------3--------------6--------------2--------
D|-----------------6-----------4--------------2--------4--------------6--------------4--------
A|-----------------4-----------4--------------0--------4--------------4--------------4--------
E|-----------------------------2-----------------------2-----------------------------2--------


       A        F#             C#m         F#m            A        F#                C#m      
E|-----0--------2--------------4-----------2--------------0--------2-----------------4--------
B|-----2--------2--------------5-----------2--------------2--------2-----------------5--------
G|-----2--------3--------------6-----------2--------------2--------3-----------------6--------
D|-----2--------4--------------6-----------4--------------2--------4-----------------6--------
A|-----0--------4--------------4-----------4--------------0--------4-----------------4--------
E|--------------2--------------------------2-----------------------2--------------------------


                F#m            D     B     F#          
E|--------------2--------------2-----2-----2-----------
B|--------------2--------------3-----4-----2-----------
G|--------------2--------------2-----4-----3-----------
D|--------------4--------------0-----4-----4-----------
A|--------------4--------------------2-----4-----------
E|--------------2--------------------------2-----------

tabs and chords, guitar tabs, music transcription, music technology, deep learning, music information retrieval, transcribe into tabs & chords, chordify, music renditions, songsterr, reverbnation, tabulature, bollywood chords, ultimate guitar, yousician, guitar lessons, acoustic guitar, electric guitar, guitar tuner, 911 tabs