Guitar Tabs for Titanic : Heart Must Go On - Tabs

Tabs for Song : my heart will go on

every night in my dreams
E|-----------------------
B|--5--5--5--5--4--5-----
G|-----------------------
D|-----------------------
A|-----------------------
E|-----------------------

i see you,i feel you
E|--------------------------
B|--5--4--5-----7--9--7-----
G|--------------------------
D|--------------------------
A|--------------------------
E|--------------------------

that is how i know you ,go on
E|--------------------------------
B|--5--5--5--5--4--5-----5--0-----
G|--------------------------------
D|--------------------------------
A|--------------------------------
E|-------------------------------

far across the distance,
E|-----------------------
B|--5--5--5--5--4--5-----
G|-----------------------
D|-----------------------
A|-----------------------
E|-----------------------

and spaces between us
E|--------------------------
B|--5--4--5-----7--9--7-----
G|--------------------------
D|--------------------------
A|--------------------------
E|--------------------------

you have come to show you go on
E|--------------------------------
B|--5--5--5--5--4--5-----5--0-----
G|--------------------------------
D|--------------------------------
A|--------------------------------
E|--------------------------------

near ,far,wherever you are
E|-----------------7-----5--4--------
B|--5-----7--------------------7-----
G|--------------4--------------------
D|-----------------------------------
A|-----------------------------------
E|-----------------------------------

i believe that the heart does,go on
E|--4--5--4-----------------------------
B|--------------7--5--4--5-----4--2-----
G|--------------------------------------
D|--------------------------------------
A|--------------------------------------
E|--------------------------------------

once more,you opened the door
E|-----------------7-----5-----4-----------
B|--5-----7--------------------------7-----
G|--------------4--------------------------
D|-----------------------------------------
A|-----------------------------------------
E|-----------------------------------------

and you're here in my heart
E|--4--5--4--------------------
B|--------------7--5--4--5-----
G|-----------------------------
D|-----------------------------
A|-----------------------------
E|-----------------------------

and my heart will go on and on
E|-----------------4-----2-----------
B|--5--4--5-----7-----7-----7--5-----
G|-----------------------------------
D|-----------------------------------
A|-----------------------------------
E|-----------------------------------





tabs and chords, guitar tabs, music transcription, music technology, deep learning, music information retrieval, transcribe into tabs & chords, chordify, music renditions, songsterr, reverbnation, tabulature, bollywood chords, ultimate guitar, yousician, guitar lessons, acoustic guitar, electric guitar, guitar tuner, 911 tabs