Guitar Tabs for Senorita - Shawn Mendes, Camila Cabello

bpm 100

Intro
E|--------------------------------------------------------------------------------------------------------
B|--1--------1--0--------1--0-----0--1--------1--0--------1--0------------0h1--1--1---------0h1--1--1-----
G|-----2-----------0--0--------2--------0-----------0--0--------2--0--------------------------------------
D|--------2--------------------------------2--------------------------3-----------------3-----------------
A|--------------------------------------------------------------------------------------------------------
E|--------------------------------------------------------------------------------------------------------

E|--------------------------------
B|--0--1--0--1--0-----0--1--0--1--
G|-----------------0--------------
D|--------------------------------
A|--------------------------------
E|--------------------------------

I love it when you call me seƱorita I wish I could pretend I didn't need ya
E|--8--7--5--7--8--5-----8--7--------8--7--5--7--8--------8--7-----
B|--------------------5--------8--8-----------------8-----------8--
G|-----------------------------------------------------9-----------
D|-----------------------------------------------------------------
A|-----------------------------------------------------------------
E|-----------------------------------------------------------------

But every touch is ooh-la-la-la  It's true, la-la-la Ooh, I should be runnin'Ooh, you keep me coming for ya
E|-----8--7--5--3--1---7/8--8--8---------7/8--8--8-----7--8--7--8--7--------7--8--7--8--7--------
B|--8--------------------------------6--------------------------------8--------------------8-----
G|-----------------------------------------------------------------------------------------------
D|-----------------------------------------------------------------------------------------------
A|-----------------------------------------------------------------------------------------------
E|-----------------------------------------------------------------------------------------------

Land in Miami        The air was hot from summer rain Sweat drippin' off me Before I even knew her name, la-la-la
E|--------0-----------0-----0-----------------0-----0--------0-----0--1--0--------------------------
B|--5--3-----3--1--------3-----3--1--0-----------3-----3--1-----3-----------3--1------3/5--5--5-----
G|--------------------------------------0--2--------------------------------------2-----------------
D|--------------------------------------------------------------------------------------------------
A|--------------------------------------------------------------------------------------------------
E|--------------------------------------------------------------------------------------------------

It felt like ooh-la-la-la
E|--------------------------
B|---------------1/3--3--3--
G|--2--2--2--0--------------
D|--------------------------
A|--------------------------
E|--------------------------


tabs and chords, guitar tabs, music transcription, music technology, deep learning, music information retrieval, transcribe into tabs & chords, chordify, music renditions, songsterr, reverbnation, tabulature, bollywood chords, ultimate guitar, yousician, guitar lessons, acoustic guitar, electric guitar, guitar tuner, 911 tabs