Guitar Tabs for Perfect - Ed Sheeran Tabs

(/) Slide Up  (\) Slide Down  (h) Hammer On  (p) Pull Off  (b) Bend (r) Release (v) Vibrato

Tabs for Song : Perfect

I found a love for me
E|-----------------8--------8--
B|-----------9--9-----11-9-----
G|---6/8--10-------------------
D|-----------------------------
A|-----------------------------
E|-----------------------------

Darling just dive right in And follow my lead
E|-----8--8--8-----------------8-----
B|--11----------11-9--9--9--11----11-
G|-----------------------------------
D|-----------------------------------
A|-----------------------------------
E|-----------------------------------

Well I found a girl beautiful and sweet
E|--8--------8-----11-8-----------
B|-----11-9--------------11-9--9--
G|--------------------------------
D|--------------------------------
A|--------------------------------
E|--------------------------------

I never knew you were the someone waiting for me
E|--------8--9-----9--8--------------------8-----
B|--9--11----------------11-11-9-----9--11----11-
G|-----------------------------------------------
D|-----------------------------------------------
A|-----------------------------------------------
E|-----------------------------------------------

Cause we were just kids when we fell in love
E|--11-11-11-13-8-----8--8--8--
B|-----------------11----------
G|-----------------------------
D|-----------------------------
A|-----------------------------
E|-----------------------------

Not knowing what it was
E|--8--------8--8--8--
B|-----11-9-----------
G|--------------------
D|--------------------
A|--------------------
E|--------------------

I will not give you up this time
E|--8--------9--8--------8--9--8-----
B|-----11-9--------9--------------11-
G|--------------------8--------------
D|-----------------------------------
A|-----------------------------------
E|-----------------------------------
tabs and chords, guitar tabs, music transcription, music technology, deep learning, music information retrieval, transcribe into tabs & chords, chordify, music renditions, songsterr, reverbnation, tabulature, bollywood chords, ultimate guitar, yousician, guitar lessons, acoustic guitar, electric guitar, guitar tuner, 911 tabs