Bass Tabs for Yoman Masa

(/) Slide Up  (\) Slide Down  (h) Hammer On  (p) Pull Off  (b) Bend (r) Release (v) Vibrato (x) Muted

Tabs for Song : yoman masa - aviv geffen and arik ainshtein
BPM : 100
starts at minute 1:24|-----------

G|----------------------------------------------------------------------------- x2
D|-----------------------------------------------3-----1--0--------------------
A|--3--------1--------1--3--4--------------------------------------------------
E|--------------------------------------4---------------------------4r---6-----

1:52

G|--------------------------------------------------0--------------------------------
D|--1-----1-----0-----------------1-----1-----0-----------0-----3--------------------
A|--------------------1--------1--------------------------------------3-----1-----1--
E|-----------------------------------------------------------------------------------

G|--1-----1--
D|----------- 
A|-----------
E|-----------

guitar solo 2:19

G|----------------------------------------------------------------------------- x2
D|-----------------------------------------------3-----1--0--------------------
A|--3--------1--------1--3--4--------------------------------------------------
E|--------------------------------------4---------------------------4r---6--6--
solo over 2:48
G|--------------------------------------------------0--------------------------------
D|--1-----1-----0-----------------1-----1-----0-----------0-----3--------------------
A|--------------------1--------1--------------------------------------3-----1-----1--
E|-----------------------------------------------------------------------------------

G|--1-----1--
D|-----------
A|-----------
E|-----------

G|--5-----3-----1-----0-----------0--------
D|--------------------------3--------------
A|---------------------------------------3r
E|-----------------------------------------























tabs and chords, guitar tabs, music transcription, music technology, deep learning, music information retrieval, transcribe into tabs & chords, chordify, music renditions, songsterr, reverbnation, tabulature, bollywood chords, ultimate guitar, yousician, guitar lessons, acoustic guitar, electric guitar, guitar tuner, 911 tabs