Guitar Tabs for Axl - Andai Dapatku Undur Masa

(/) Slide Up  (\) Slide Down  (h) Hammer On  (p) Pull Off  (b) Bend (r) Release (v) Vibrato (x) Muted

Tabs for Song : 

Song lyrics here
E|--------------------------------------------------------------------------
B|------------------------------9h11-9-----7--6--7---6h7--6-----------------
G|---------------------8h10-8--------------------------------8--6---8\10-10-
D|-----8--10-11-10-11-------------------------------------------------------
A|--8-----------------------------------------------------------------------
E|--------------------------------------------------------------------------

E|---------------------------------------9\11--9h11-9--8-----------6--6--6h8--6--
B|--7--6--7---6h7--6--------------------------------------11/6--6--------------
G|--------------------8--6---8\10----------------------------------------------
D|--------------------------------11-------------------------------------------
A|-----------------------------------------------------------------------------
E|-----------------------------------------------------------------------------

Song lyrics here
E|-----------------------------------------------------------------------------------------
B|-----------4--6--7---6h7--4--6--4--------------------6--7--9---7h9--6--7---6h7--6-----6--
G|---5\6--6--------------------------6--5------6\8--8--------------------------------8-----
D|-----------------------------------------------------------------------------------------
A|-----------------------------------------------------------------------------------------
E|-----------------------------------------------------------------------------------------

E|--------------------------------------------------------------------------------
B|--11-11-9-----------------------------------11-13-13b13-11h13-10----11-13-10----
G|-----------11-10-11-10h11-10----8--8--6-----------------------------------------
D|--------------------------------------------------------------------------------
A|--------------------------------------------------------------------------------
E|--------------------------------------------------------------------------------

Paste any tab in acousterr's tab maker and we'll play it !!!
Now supports capo and sound effects for vibrato/pull-off/hammer/bends/mutes etc !!! Checkout help section
tabs and chords, guitar tabs, music transcription, music technology, deep learning, music information retrieval, transcribe into tabs & chords, chordify, music renditions, songsterr, reverbnation, tabulature, bollywood chords, ultimate guitar, yousician, guitar lessons, acoustic guitar, electric guitar, guitar tuner, 911 tabs