Guitar Tabs for Yerine Sevemem

(/) Slide Up  (\) Slide Down  (h) Hammer On  (p) Pull Off  (b) Bend (r) Release (v) Vibrato (x) Muted

Tabs for Song :Yerine Sevemem 

Song lyrics here
E|-----------------------------------------------------------------------------------------
B|-----------------------------------------------------------------------------------------
G|--------------8--7-----------------8--7-----7--8--5--5--5--3--5--------------------------
D|--7--7--8--10----------7--7--8--10-------------------------------8--7--5--7--8--7--5--3--
A|-----------------------------------------------------------------------------------------
E|-----------------------------------------------------------------------------------------

E|--------------------------------------------------------------------------------------------------------------------
B|--------------------------------------------------------------------------------------------------------------------
G|--------------8--7-----------------8--7-----7--8--5-----5--7--3-----3--5--------------------------------------------
D|--7--7--8--10----------7--7--8--10----------------------------------------7-----7--8--5-----3--5--3-----------------
A|-----------------------------------------------------------------------------------------------------6--5--5---6/10-
E|--------------------------------------------------------------------------------------------------------------------

Song lyrics here
E|--
B|--
G|--
D|--
A|--
E|--

Paste any tab in acousterr's tab maker and we'll play it !!!
Now supports capo and sound effects for vibrato/pull-off/hammer/bends/mutes etc !!! Checkout help section
tabs and chords, guitar tabs, music transcription, music technology, deep learning, music information retrieval, transcribe into tabs & chords, chordify, music renditions, songsterr, reverbnation, tabulature, bollywood chords, ultimate guitar, yousician, guitar lessons, acoustic guitar, electric guitar, guitar tuner, 911 tabs