Guitar Tabs for Hunterxhunter 2011 Hisoka's Theme

(/) Slide Up  (\) Slide Down  (h) Hammer On  (p) Pull Off  (b) Bend (r) Release (v) Vibrato

Entering:

E|--8p6h5--------------------------------------------------------------
B|---------8p6h5--8--6--5--------5-------------------------------------
G|-------------------------7--6-----6--7-------------------------------
D|----------------------------------------------7/8\7--5--7/8\7--5--7--
A|---------------------------------------------------------------------
E|---------------------------------------------------------------------

First Riff:

E|----------------------------------------------------------------------------------------
B|--------------------3---------------------------------------3---------------------------
G|--1/2v-----0--2--3-----3--2--0-----0--2--3--2v-----0--2--3-----3--2--0-----0--2--3--2v--
D|--------------------------------0---------------------------------------0---------------
A|----------------------------------------------------------------------------------------
E|----------------------------------------------------------------------------------------

First Riff:

E|------------------------------------------------------------------------------------------------------
B|------------------------------------------------------------------------------------------------------
G|--0--2--3v-----2----------------------1/2v-----0--2--3--2--3-----2v-----------------------------------
D|---------------------2--2--3/4/5v---------------------------------------3--2--0-----3--2h3h2h3h2h3h2--
A|------------------------------------------------------------------------------------------------------
E|------------------------------------------------------------------------------------------------------

First Solo:

E|-----------------------------5-7-8-7-5----7-8-7-5-----------------------
B|---------------5h6h5-----6-8----------------------8-6-5-6-5-------------
G|-----------5-7-------7--------------------------------------7-5-4-5-7-5-
D|-5-7-9-7-9--------------------------------------------------------------
A|------------------------------------------------------------------------
E|------------------------------------------------------------------------

First Solo:

E|------------------------------------------------------------
B|-------5-6-8-6-5--------------------------------------------
G|-4-5-7-----------7-5-4-7-5-4--------------------------------
D|-----------------------------7-5-2-2/5----3-2h3h2h3h2h3h2h3-
A|------------------------------------------------------------
E|------------------------------------------------------------

Second Riff:

E|----------------------------------------------------------------------------------------
B|--------------------3---------------------------------------3---------------------------
G|--1/2v-----0--2--3-----3--2--0-----0--2--3--2v-----0--2--3-----3--2--0-----0--2--3--2v--
D|--------------------------------0---------------------------------------0---------------
A|----------------------------------------------------------------------------------------
E|----------------------------------------------------------------------------------------

Second Riff:

E|--------------------------------------------------------------------------------------------
B|--------------------------------------------------------------------------------------------
G|--0--2--3v-----2----------------------1/2v-----0--2--3---2v---------------------------------
D|---------------------2--2--3/4/5v-----------------------------3--2--0-----3--2h3h2h3h2h3h2--
A|--------------------------------------------------------------------------------------------
E|--------------------------------------------------------------------------------------------

Second Solo:

E|-----------------------------------------5-7-8-7-5-7----

B|-----------------------------5-6-8-5-6-8----------------
G|---------------0-2-4-5-4-5-7----------------------------
D|-----0-2-5-2-3------------------------------------------
A|-2-3----------------------------------------------------
E|-------------------------------------------------------- (let ring the last note)

Second Solo:

E|-7p5h7-------------------------------------------------------------------
        
B|-x-----6p5-6p5-5---------------------------------------------------------
G|-x---------------7-5-4-5-5/7-5-4-----------------------------------------
D|-x------------------------------7-5-3-2-0-2-3-2-0-3-2-0------------------
A|---------------------------------------------------------3-2-0-----------
E|---------------------------------------------------------------3-1-0-0-0-
tabs and chords, guitar tabs, music transcription, music technology, deep learning, music information retrieval, transcribe into tabs & chords, chordify, music renditions, songsterr, reverbnation, tabulature, bollywood chords, ultimate guitar, yousician, guitar lessons, acoustic guitar, electric guitar, guitar tuner, 911 tabs