Guitar Tabs for Pirates Of The Caribbean

E|--------------------------------------------------------------------------
B|--------------------------5--6-----6-----6--8--5-----5--------------------
G|--------5--7-----7-----7-----------------------------------7--5---5h7-----
D|-----7--------------------------------------------------------------------
A|--------------------------------------------------------------------------
E|--------------------------------------------------------------------------

E|-----------------------------------------------------------------------
B|--------------------------5--6-----6-----6--8--5-----5-----------------
G|--------5--7-----7-----7-----------------------------------7--5--7-----
D|-----7-----------------------------------------------------------------
A|-----------------------------------------------------------------------
E|-----------------------------------------------------------------------

E|--------------------------------------------5--6-----6-----5-----5--------
B|--------------------------6--8-----8-----8--------------------8-----------
G|--------5--7-----7-----7--------------------------------------------7-----
D|-----7--------------------------------------------------------------------
A|--------------------------------------------------------------------------
E|--------------------------------------------------------------------------

E|-----------------------------5--------------------------------------------
B|--------5--6-----6-----8--------------------6--5-----5-----5-----5--------
G|-----7--------------------------7--------7--------------------7-----------
D|--------------------------------------------------------------------------
A|--------------------------------------------------------------------------
E|--------------------------------------------------------------------------

E|--------------------------------------------------------------------------
B|--------------------------5--6-----6-----6--8--5-----5--------------------
G|--------5--7-----7-----7-----------------------------------7--5---5h7-----
D|-----7--------------------------------------------------------------------
A|--------------------------------------------------------------------------
E|--------------------------------------------------------------------------

E|-----------------------------------------------------------------------
B|--------------------------5--6-----6-----6--8--5-----5-----------------
G|--------5--7-----7-----7-----------------------------------7--5--7-----
D|-----7-----------------------------------------------------------------
A|-----------------------------------------------------------------------
E|-----------------------------------------------------------------------

E|--------------------------------------------5--6-----6-----5-----5--------
B|--------------------------6--8-----8-----8--------------------8-----------
G|--------5--7-----7-----7--------------------------------------------7-----
D|-----7--------------------------------------------------------------------
A|--------------------------------------------------------------------------
E|--------------------------------------------------------------------------

E|-----------------------------5-----------------------------
B|--------5--6-----6-----8--------------------6--5-----5-----
G|-----7--------------------------7--------7-----------------
D|-----------------------------------------------------------
A|-----------------------------------------------------------
E|-----------------------------------------------------------

E|--------------------------------------------5-----------------------------6--------------------------------------------
B|--------------------5-----6-----6-----8--------------6-----------------------------6-----------------------------------
G|--7--5--7-----7-----------------------------------------7-----------------------------7--------------6-----7-----6-----
D|--------------------------------------------------------------7-----------------------------8--------------------------
A|-----------------------------------------------------------------------------------------------------------------------
E|-----------------------------------------------------------------------------------------------------------------------

E|-----------------------------------------------------------------------------------------------------------------
B|---8/10----10----10----11-10-----6/8-----8-----8------8h10-----8/10----10----10----11-10----8--------------------
G|--------------------------------------------------------------------------------------------------10----9-----7--
D|-----------------------------------------------------------------------------------------------------------------
A|-----------------------------------------------------------------------------------------------------------------
E|-----------------------------------------------------------------------------------------------------------------

E|-----------------------------------------------------------------------
B|--------------------8-----10----8-----------------------8-----10----8--
G|-----7--9--10-------------------------10----9-----10-------------------
D|-----------------------------------------------------------------------
A|-----------------------------------------------------------------------
E|-----------------------------------------------------------------------

E|-----------------------------------------------------------------------
B|--------8-----10----8--------------------------------------------------
G|-----10-------------------10----9-----10----9-----7--------9--------7--
D|--------------------------------------------------------------10-------
A|-----------------------------------------------------------------------
E|-----------------------------------------------------------------------

E|--------------------------------------------------------------------------
B|-----------------------------8-----------8-----10----8--------------------
G|--7--9-----10-------9--10----------10----------------------10----7--7-----
D|--------------------------------------------------------------------------
A|--------------------------------------------------------------------------
E|--------------------------------------------------------------------------

E|-----------------------------------------------------------------------
B|--------------------8-----10----10/11-------8--------------8-----------
G|-----7--9-----10----------------------7-----------10----------9-----7--
D|-----------------------------------------------------------------------
A|-----------------------------------------------------------------------
E|-----------------------------------------------------------------------

E|--------5--------------6--------5-----5-----5-----5--------------------------------------------------------------
B|-----------------------------------------------------8-----------8--------------6--------5-----6-----5-----------
G|-----------------------------------------------------------------------------------------------------------7-----
D|-----------------------------------------------------------------------------------------------------------------
A|-----------------------------------------------------------------------------------------------------------------
E|-----------------------------------------------------------------------------------------------------------------

E|-----------5--------------6--------5-----5-----8-----5--------------------------------------------------------------
B|-----5--6-----------5--6--------------------------------8-----------8-----------6-----------5-----6-----5-----------
G|--7--------------7--------------------------------------------------------------------------------------------7-----
D|--------------------------------------------------------------------------------------------------------------------
A|--------------------------------------------------------------------------------------------------------------------
E|--------------------------------------------------------------------------------------------------------------------
tabs and chords, guitar tabs, music contests, music covers, songsterr, reverbnation, renditions, tabulature, bollywood chords, ultimate guitar, yousician, guitar lessons, torrins, fender, gibson, acoustic guitar, electric guitar, youtube covers, gootar, guitar tuner, A-Z tabs, 911 tabs