Guitar Tabs for Susma

(/) Slide Up  (\) Slide Down  (h) Hammer On  (p) Pull Off  (b) Bend (r) Release (v) Vibrato (x) Muted

Tabs for Song : 

Song lyrics here
E|-----------------------------------------------------------------------------------------------------
B|--------------------------9-----9-----------------------------------------------9--10--7b-7p5--7-----
G|---6b6------6b6--4---6/9-----8-----6-----4-----5--6--8--9--8--9--11b11v---11b11----------------------
D|--------6-----------------------------7--------------------------------------------------------------
A|-----------------------------------------------------------------------------------------------------
E|-----------------------------------------------------------------------------------------------------

E|-----------------------------------------------------------------------9-----9-----9--8--9--8--------------4--3--
B|---4h5--4-----12-10h12-9--10-9--7--9------------------------------7/9-----7-----4--------------7--9--10----------
G|-----------4--------------------------------------------------------------------------------------------5--------
D|-----------------------------------------------------------------------------------------------------------------
A|------------------------------------------7h9---9p7--6--7--------------------------------------------------------
E|-----------------------------------------------------------7-----------------------------------------------------

E|--
B|--
G|--
D|--
A|--
E|--

E|--
B|--
G|--
D|--
A|--
E|--

Song lyrics here
E|--
B|--
G|--
D|--
A|--
E|--

Paste any tab in acousterr's tab maker and we'll play it !!!
Now supports capo and sound effects for vibrato/pull-off/hammer/bends/mutes etc !!! Checkout help section
tabs and chords, guitar tabs, music transcription, music technology, deep learning, music information retrieval, transcribe into tabs & chords, chordify, music renditions, songsterr, reverbnation, tabulature, bollywood chords, ultimate guitar, yousician, guitar lessons, acoustic guitar, electric guitar, guitar tuner, 911 tabs