Guitar Tabs for Xkurwad

(/) Slide Up  (\) Slide Down  (h) Hammer On  (p) Pull Off  (b) Bend (r) Release (v) Vibrato (x) Muted

Tabs for Song : 
BPM : 200

intro
E|--------------------------------------------------------------------
B|--------------------------------------------------------------------
G|--------------5--5--5-----------------------------5--5--5-----------
D|--5--5--5-----5--5--5-----2--2--------5--5--5-----5--5--5-----2--2--
A|--5--5--5-----3--3--3-----2--2--------5--5--5-----3--3--3-----2--2--
E|--3--3--3-----------------------------3--3--3-----------------------

verse
E|--------------------------------------------------
B|--------------------------------------------------
G|-----------------------------5--5--5-----7--7--7--
D|-----7--7--7-----5--5--5-----5--5--5-----7--7--7--
A|-----7--7--7-----5--5--5-----3--3--3-----5--5--5--
E|-----5--5--5-----3--3--3--------------------------

E|--------------------------------------------------
B|--------------------------------------------------
G|-----------------------------5--5--5-----7--7--7--
D|-----7--7--7-----5--5--5-----5--5--5-----7--7--7--
A|-----7--7--7-----5--5--5-----3--3--3-----5--5--5--
E|-----5--5--5-----3--3--3--------------------------

E|--------------------------------------------------
B|--------------------------------------------------
G|-----------------------------5--5--5-----7--7--7--
D|-----7--7--7-----5--5--5-----5--5--5-----7--7--7--
A|-----7--7--7-----5--5--5-----3--3--3-----5--5--5--
E|-----5--5--5-----3--3--3--------------------------

E|--------------------------------------------------
B|--------------------------------------------------
G|-----------------------------5--5--5-----7--7--7--
D|-----7--7--7-----5--5--5-----5--5--5-----7--7--7--
A|-----7--7--7-----5--5--5-----3--3--3-----5--5--5--
E|-----5--5--5-----3--3--3--------------------------
Most jak chuj

E|-----------------------------------------
B|-----------------------------------------
G|-----------------------------------------
D|-----------------------------------------
A|-----------------------------------------
E|-----5--5--5--5--3--0-----5--5--5--5--3--

E|-----------------------------------------
B|-----------------------------------------
G|-----------------------------------------
D|-----------------------------------------
A|-----------------------------------------
E|-----5--5--5--5--3--0-----5--5--5--5--3--

verse
E|--------------------------------------------------
B|--------------------------------------------------
G|-----------------------------5--5--5-----7--7--7--
D|-----7--7--7-----5--5--5-----5--5--5-----7--7--7--
A|-----7--7--7-----5--5--5-----3--3--3-----5--5--5--
E|-----5--5--5-----3--3--3--------------------------

E|--------------------------------------------------
B|--------------------------------------------------
G|-----------------------------5--5--5-----7--7--7--
D|-----7--7--7-----5--5--5-----5--5--5-----7--7--7--
A|-----7--7--7-----5--5--5-----3--3--3-----5--5--5--
E|-----5--5--5-----3--3--3--------------------------

E|--------------------------------------------------
B|--------------------------------------------------
G|-----------------------------5--5--5-----7--7--7--
D|-----7--7--7-----5--5--5-----5--5--5-----7--7--7--
A|-----7--7--7-----5--5--5-----3--3--3-----5--5--5--
E|-----5--5--5-----3--3--3--------------------------

E|--------------------------------------------------
B|--------------------------------------------------
G|-----------------------------5--5--5-----7--7--7--
D|-----7--7--7-----5--5--5-----5--5--5-----7--7--7--
A|-----7--7--7-----5--5--5-----3--3--3-----5--5--5--
E|-----5--5--5-----3--3--3--------------------------



tabs and chords, guitar tabs, music transcription, music technology, deep learning, music information retrieval, transcribe into tabs & chords, chordify, music renditions, songsterr, reverbnation, tabulature, bollywood chords, ultimate guitar, yousician, guitar lessons, acoustic guitar, electric guitar, guitar tuner, 911 tabs