Guitar Tabs for O O Jaane Jaana

(/) Slide Up  (\) Slide Down  (h) Hammer On  (p) Pull Off  (b) Bend (r) Release (v) Vibrato (x) Muted

Tabs for Song : o o jaane jaana tabs

Mera khawab mere khayalo ki rani
E|-----------------------------------------------
B|--------5--------------------------------------
G|-----------5-----7--4-----------4---4h-5p4-----
D|---5/7--------7--------5--5--7--------------7--
A|-----------------------------------------------
E|-----------------------------------------------

Kisi din banegi humari kahani
E|--------------------------------------------------
B|--------------5-----------------------------------
G|-----------5--------7--4-----------4---4h-5p4-----
D|-----7--7-----------------5--5--7--------------7--
A|--------------------------------------------------
E|--------------------------------------------------

ye meri bekhudi ye kasam maine li
E|--------------------------------------------------------------------
B|-----5--5--7-----7--5---5h-7p5--------3--3--5-----5--3---3h-5p3-----
G|--------------------------------7--------------------------------5--
D|--------------------------------------------------------------------
A|--------------------------------------------------------------------
E|--------------------------------------------------------------------

Pyaar me ek din meri jaan tujhe hai pana
E|-----------------------------------------------------------------------------------
B|-----------------------------------5--------5---------5h-6p5-----------------------
G|-----4--2--4-----4--2--4-----5--7--------7--------7-----------7--5---4h-5p4--------
D|-----------------------------------------------------------------------------5-----
A|-----------------------------------------------------------------------------------
E|-----------------------------------------------------------------------------------

Main intro 1
E|-----------------------------------------------------------
B|--------------5-----5--------------------------------------
G|-----------------7-----5------5/7--7--4-----4---2h-4p2-----
D|---5/7--7--7-----------------------------7--------------5--
A|-----------------------------------------------------------
E|-----------------------------------------------------------

Intro 2
E|-----------------------------------------------------------------------------
B|-----------------------------------------5-----5-----------------------------
G|--------------4--4--4--4--------------------7-----5--7---4h-5p4--------------
D|------3/5--5------------------5/7--7--7--------------------------5------5/7--
A|-----------------------------------------------------------------------------
E|-----------------------------------------------------------------------------

Now supports capo and sound effects for vibrato/pull-off/hammer/bends/mutes etc !!! Checkout help section
tabs and chords, guitar tabs, music transcription, music technology, deep learning, music information retrieval, transcribe into tabs & chords, chordify, music renditions, songsterr, reverbnation, tabulature, bollywood chords, ultimate guitar, yousician, guitar lessons, acoustic guitar, electric guitar, guitar tuner, 911 tabs