Guitar Tabs for Workperfect

(/) Slide Up  (\) Slide Down  (h) Hammer On  (p) Pull Off  (b) Bend (r) Release (v) Vibrato (x) Muted

Tabs for Song : 

    I found a love               for me,             Darling just dive right in.    And follow my lead
E|--------------------------------------------------------------------------------------------------------
B|-----------------0-----------------0--------0--0-----------------------0--0--0--------------------0-----
G|-----------0--0-----0-----------0-----2--0--------0-----------0---0h2------------2p0--0--0--0--2-----2--
D|--0---0h2--------------0-----0-----------------------2-----2--------------------------------0--------0--
A|-----------------------------------------------------------------------------3--------------3-----------
E|--------------3-----------3-----------------0-----------0-----------------------------------------------
Song lyrics here
E|--3--------2--
B|-----3--------
G|--------2-----
D|--------------
A|--------------
E|--------------
Well I found a girl            beautiful and sweet. I never knew you were the someone waiting for me
E|--------------------------------------------------------------------------------------------------
B|-----0--------0--0--------0-----0--3-----------------------0--0--1--1--0--------------------0-----
G|-----0--2--0--------0-----------0-----2--0--0--0------0h2-----------------0---2p0--0--0--2-----2--
D|-----------------------0--------------------------------------------------------------0--------0--
A|--------------------------------------------------------------3-----------------------3-----------
E|--3-----------3--------------0--------0-----------0-----------------------------------------------
'Cause we were just kids when we fellinlove Not knowing whatitwas. I will not giveyouup this time
E|-----------------0-----------------------------------------------------------------
B|--0---0h3--3--3-----------0--0--0--------0--0--0--0--------1--0--------0--1--0-----
G|--2------------------4\2------------2p0--------------2--0--------0--------------2--
D|--0-----------------------------------------------------------------0-----------0--
A|-----------------------------------------------------------3-----------------------
E|--------------------------3--------------0-----0-----------------------3-----------
Now supports capo and sound effects for vibrato/pull-off/hammer/bends/mutes etc !!! Checkout help section
E|-----------------0--------------------------------------------------------------------------------------
B|--0---0h3--3--3-----------0-----0-----0--0--------0-----0-----0--0--------1--0-----------0---1p0--------
G|--2------------------4\2---------------------2p0-----0-----0--------2--0--------0-----------------0--2--
D|--0--------------------------------------------------------------------------------0--------------0--0--
A|-----------------------------2-----2--------------------------------------3-----------3-----------------
E|--------------------------3-----------------------0--------------------------------------3-----------
Baby   I                             Dancing in the dark. You between my arms, barefoot on the grass
E|-----------------------------------3--2--0--2-----------------------------3--2--0--2-----
B|--0---0h3---0h-2p0-----------------------------0--0---0h3---0h-2p0--2-----------------0--
G|--2------------------2p0--0--0--------------------2--------------------0-----------------
D|--0-----------------------------2-----------------0--------------------------------------
A|-----------------------------------3--------------------------------------3--------------
E|--------------------------0--------------------3-----------------------0--------------3--
Listening to our favorite song. You said you looked a mess, I whispered underneath my breath but you heard it
E|-----------------------------------3--2--0--2--------------------------------------------
B|--0------------0h-1p0-----0--------------------0--------0--3--1--0--1--0--------0--1--0--
G|--2--2--2--2-----------2-----2--0------------------0h2--------------------2--0-----------
D|--0--------------------------------------------------------0-----------------------------
A|-----------------------------------3--------------------------------------------3--------
E|--------------------------------0--------------3-----------------------0-----------------
Darling you look perfect tonight.
E|-----------------------
B|-----------------------
G|--2--4--2--0--2--0-----
D|-----------------------
A|-----------------------
E|--3--3-----0--------3--
tabs and chords, guitar tabs, music transcription, music technology, deep learning, music information retrieval, transcribe into tabs & chords, chordify, music renditions, songsterr, reverbnation, tabulature, bollywood chords, ultimate guitar, yousician, guitar lessons, acoustic guitar, electric guitar, guitar tuner, 911 tabs