Guitar Tabs for Wolczaq Zamiec

(/) Slide Up  (\) Slide Down  (h) Hammer On  (p) Pull Off  (b) Bend (r) Release (v) Vibrato (x) Muted

Tabs for Song : 

capo  at 5th fret
E|--------------------------------------------------------------------------------------------------
B|--1--0--1--0--1--0--1--0--1-----------------------1--0--1--0--1--0--1--0--1-----------3-----1--0--
G|--------2--0--2--0--2--0--2--------------------------------0--2--------0--2-----------------0-----
D|-----2-----------------------2--------------------------3--------------------3-----------0--------
A|--0-----------------------------2--3--0-----3--------3--------------------------3-----------------
E|--------------------------------------------------1-----------------------------------3-----------

E|--------------------------------------------------------------------------------------------------
B|--1--0--1--0--1--0--1--0--1-----------------------1--0--1--0--1--0--1--0--1-----------0-----------
G|--------2--0--2--0--2--0--2--------------------------------0--2--------0--2-----------2-----------
D|-----2-----------------------2--------------------------3--------------------3--------0-----------
A|--0-----------------------------2--3--0-----3--------3--------------------------3-----2-----------
E|--------------------------------------------------1-----------------------------------------------

E|--0-----------------------------------------------------------------------------------------------
B|-----------1--0--------0--1--------1--0-----------1--------1--------0-----------------------------
G|--------2-----------0-----------2-----------0-----------2-----0-----------2--------2--1-----------
D|-----2-----------2-----------3-----------------------2-----------2--------------3-----------2-----
A|--0-----------0-----------0-----------0-----------0-----------0-----------3-----------2-----------
E|--------------------------------------------------------------------------------------------------

E|--------------------------------------------------------------------------------------------------
B|--------------------------------------------------1--0--1--0--1--0--1--0--1-----------------------
G|--2--------2--------------2--------2--1-----------------2--0--2--0--2--0--2-----------------------
D|--------2-----------2-----------2-----------2--------2-----------------------2--------------------
A|-----3-----------3-----------3--------------------0-----------------------------2--3--0-----------
E|--1-----------1-----------1-----------0-----------------------------------------------------------

E|--------------------------------------------------------------------------------------------------
B|--------5-----------3-----------1-----------0-----------5-----------5-----------5-----------3-----
G|--------------------------------------------0--------2-----2-----2-----2-----2-----2-----2-----2--
D|-----2-----2-----2-----2-----2-----2-----2--------3-----------3-----------3-----------5-----------
A|--0-----------0-----------0-----------0-----------------------------------------------------------
E|--------------------------------------------------------------------------------------------------

E|--0-----0-----------------------------------------------------------------------------0-----------
B|--1-----------------3-----------1-----------3-----------5--------1-----1-----0-----0--0-----------
G|--2--------2-----------------------2-----------2-----2-----2--------2-----------2-----1-----------
D|--2--2-----------2-----2-----2-----------2--------3-----------3-----------2-----------2-----------
A|--0-----------0-----------0-----------0-----------------------------------------------2-----------
E|--------------------------------------------------------------------------------------------------







tabs and chords, guitar tabs, music transcription, music technology, deep learning, music information retrieval, transcribe into tabs & chords, chordify, music renditions, songsterr, reverbnation, tabulature, bollywood chords, ultimate guitar, yousician, guitar lessons, acoustic guitar, electric guitar, guitar tuner, 911 tabs