Bass Tabs for Wildflowers

(/) Slide Up  (\) Slide Down  (h) Hammer On  (p) Pull Off  (b) Bend (r) Release (v) Vibrato (x) Muted

Tabs for Song : Wildflowers

No bass for Verse 1 and Verse 2

CHORUS 1
G|-----------------------
D|-----------------------
A|--2-----2-----2-----2--
E|-----------------------

Post-Chorus 
G|--------------------------------------------------------------
D|--2--1--------------2-----4-----2--1--------------2-----4-----
A|--------2--------------2--------------2-----------------------
E|-----------4--2--------------------------4--2--------4--------

G|--------------------------------------------------------------
D|--2--1--------------2-----4-----2--1--------------2-----------
A|--------2-----------------------------2-----------------------
E|-----------4--2--------4-----------------4--2--------4--2-----

Verse 3 ("Run away, go find a lover..."
G|-----------------------------------------------------
D|-----------------------------------------------------
A|--2-----2-----2--2--2--2--2--2--2--2--2--2--2--2--2--
E|-----------------------------------------------------

CHORUS 2
G|-----------------------------------------------------------------------------------------------------------------
D|--2--2--------4--4-----------1--2--2--------4--4--4--4-----1--2--2--------4--4-----------1--2--2--------4--4-----
A|--------2--2--------2-----2-----------2--2--------------------------2--2--------2-----2-----------2--2-----------
E|-----------------------------------------------------------------------------------------------------------------

G|-----------------------------------------------------------------------------------------------------------------
D|--2--2--------4--4-----------1--2--2--------4--4--4--4-----1--2--2--------4--4-----------1--2--2--------4--4-----
A|--------2--2--------2-----2-----------2--2--------------------------2--2--------2-----2-----------2--2--------2--
E|-----------------------------------------------------------------------------------------------------------------

G|-----------------------------------------------------------------------------------------
D|--2-----------4-----------------------4--1--2--2--------4--4-----------1--2--2--------4--
A|--------2-----------------------------------------2--2--------2-----2-----------2--2-----
E|-----------------------------------------------------------------------------------------

Use manual mode to free up cursor. Paste any tab in acousterr tab maker and we'll play it !!!
tabs and chords, guitar tabs, music transcription, music technology, deep learning, music information retrieval, transcribe into tabs & chords, chordify, music renditions, songsterr, reverbnation, tabulature, bollywood chords, ultimate guitar, yousician, guitar lessons, acoustic guitar, electric guitar, guitar tuner, 911 tabs