Bass Tabs for Watershop - Lemonsweet Bass Tab

(/) Slide Up  (\) Slide Down  (h) Hammer On  (p) Pull Off  (b) Bend (r) Release (v) Vibrato (x) Muted

Tabs for Song : 

Watershop Verse Basic:
G|--------------------------------------------------------------
D|--------------------------------------------------------------
A|--------------------------------7--7--7--7--7--7--7--7--7--7--
E|--5--5--5--5--5--5--5--5--5--5--------------------------------

G|--------------------------------------------------------------
D|--------------------------------------------------------------
A|--------------------------------5--5--5--5--5--5--5--5--5--5--
E|--3--3--3--3--3--3--3--3--3--3--------------------------------

Mögliche Walking-Bass-Line:

G|--------------5--------------------------------------------------------11----------------------------------
D|-----7--5--7-----7--5-----------5-----5--4--5--4-----------9-----9--12----12-10----4-----4--7--5--4--------
A|-----------------------7--5--7-----7--------------5--7--10----10----------------5-----5--------------7--5--
E|--5--------------------------------------------------------------------------------------------------------

Refrain (Slapped): 2x
G|--------------------------------------------5-----
D|--------3-----------2-----------7-----------------
A|-----------------------------------------3--------
E|--1--1-----1----x-0-----0--5--5-----5--x---------3--

Verse:

Refrain
Solo (Wie Refrain)

Bridge:
G|--------------------------------------------------------------
D|--------------------------------------------------------------
A|--------------------------------------------------------------
E|-----1-----0-----5--4--3--2--1-----0-----5--4--3--2--1-----0--

Verse

tabs and chords, guitar tabs, music transcription, music technology, deep learning, music information retrieval, transcribe into tabs & chords, chordify, music renditions, songsterr, reverbnation, tabulature, bollywood chords, ultimate guitar, yousician, guitar lessons, acoustic guitar, electric guitar, guitar tuner, 911 tabs