Bass Tabs for Voices - Lemonsweet Bass Tab

(/) Slide Up  (\) Slide Down  (h) Hammer On  (p) Pull Off  (b) Bend (r) Release (v) Vibrato (x) Muted

Tabs for Song : Voices

Strophe
G|-----------------------------------------------------------
D|-----------------------------------------------------------
A|-----------------------------------------------------------
E|--5--5--5--5-----8--8--8--8-----0--0--0--0-----1--1--1--1--
Refrain
Strumming: d/d/d/u/d/d/u       d/d/u/d/u/d/u/d/u/d        u/d/u/d/d/u/d/u         d/d/d/d/u/d/u/d/d/u
G|--------------------------------------------------------------------------------------------------------------
D|-----------------------------------------------3--------------------------------------------------------------
A|-----------------------------5--5--3--5--5--5-----5--3--------------------------7--7--7--7--7--7--7--7--7--7--
E|--1--1--1--1--1--1--1--1--1-----------------------------5--5--3--5--5--5--5--5--------------------------------

Strophe
Refrain

(Solo:
Strophe 1x
G|-----------------------------------------------------------------------------------------------------------------
D|-----------------------------------------------------------------------------------------------------------------
A|-----------------------------------------------------------------------------------------------------------------
E|-----5--5--5--5--5--5--5--5--5--8--8--8--8--8--8--8--8--8--0--0--0--0--0--0--0--0--0--1--1--1--1--1--1--1--1--1--
Refrain 2x)

Bridge: (Du-Bap...)

G|--------------------------------------------------
D|--------------------------------------------------
A|-----------------7-----8-----------------7-----8--
E|-----5-----8-----------------5-----8--------------
2x
G|-----x-----x-----x-----x-----x-----x-----x-----x-----x-----x-----x-----x-----x-----x-----x-----x--
D|-----x-----x-----x-----x-----x-----x-----x-----x-----x-----x-----x-----x-----x-----x-----x-----x--
A|-----x-----x-----x-----x-----x-----x-----x-----x--7--x--7--x--7--x--7--x--8--x--8--x--8--x--8--x--
E|--5--x--5--x--5--x--5--x--8--x--8--x--8--x--8--x-----x-----x-----x-----x-----x-----x-----x-----x--


Refrain 2x

Ending:
G|-----------------
D|-----------------
A|-----------------
E|-----5--5--5--5--

tabs and chords, guitar tabs, music transcription, music technology, deep learning, music information retrieval, transcribe into tabs & chords, chordify, music renditions, songsterr, reverbnation, tabulature, bollywood chords, ultimate guitar, yousician, guitar lessons, acoustic guitar, electric guitar, guitar tuner, 911 tabs