Bass Tabs for Sick - Lemonsweet Bass Tab

(/) Slide Up  (\) Slide Down  (h) Hammer On  (p) Pull Off  (b) Bend (r) Release (v) Vibrato (x) Muted

Tabs for Song : Sick

2. Strophe
G|--------------------------------------------
D|--------------------------------------------
A|--------3--3--3--3--3-----------------------
E|--0--------------------3-----2--2--2--3--2--

"why is everybody..."
G|-----------------------------------------
D|-----------------------------------------
A|-----------3--3--3-----------------------
E|--0--0--------------3--3-----2--2--3--2--

"work as their Machines..."
G|--------------
D|--------------
A|-----3-----5--
E|--------------

tabs and chords, guitar tabs, music transcription, music technology, deep learning, music information retrieval, transcribe into tabs & chords, chordify, music renditions, songsterr, reverbnation, tabulature, bollywood chords, ultimate guitar, yousician, guitar lessons, acoustic guitar, electric guitar, guitar tuner, 911 tabs