Bass Tabs for Insanity - Lemonsweet Bass Tab

(/) Slide Up  (\) Slide Down  (h) Hammer On  (p) Pull Off  (b) Bend (r) Release (v) Vibrato (x) Muted

Tabs for Song : Insanity

Intro
G|--------------------------------------------------------------------------------------------------
D|--------------------------------------------------------------------------------------------------
A|-----5--7--7--7--7--7--7-----------------------------5--7--7--7--7--7--7--------------------------
E|--7-----------------------5--3--2---2/14-14-14-14-7-----------------------5--3--2--2--2--2--2--2--

Verse 1. 2x
G|-----------------------------------------------------------------------------------------
D|-----------------------------------------------------------------------------------------
A|--------------------------------------------------------------------------------5--5-----
E|--7--7--7--7-----7--9--10-10-10-10----10-9--3--3--3--3-----3--4--5--5--5--5-----------5--
Verse 2. 2x
G|--------------------------------------------------------------------------------
D|--------------------------------------------------------------------------------
A|-----------------------------------------------------------------------5--5-----
E|--7--7--7-----7--9--10-10-10----10-10-9--3--3--3-----3--4--5--5--5-----------5--
Verse Ending
G|-----------------------
D|-----------------------
A|-----------------------
E|--3--4--5--5--5--5--5--

Refrain 2x
G|--------------------------------------------------------------------------------------------------------------------------
D|--------------------------------------------------------------------------------------------------------------------------
A|--2--2--2--5--2--2--2--5--7--5--9--9--9--7--7--5--5--2--3--4--5-----------------------------------------------------------
E|-----------------------------------------------------------------2--2--2-----2--2--2--2--3--3--3--3--3--5--5--5--5--5--5--
Vereinfacht:(strumming: d/ d/u d d/u d/u d d/u oder 1-12-1-12-12-1-12)
G|-----------------------------------------------------------------------------------------------------------------------------------
D|-----------------------------------------------------------------------------------------------------------------------------------
A|-----2--2--2--2--2--2--2--2--2--2--2--5--5--5--5--5--5--5--5--5--5--5--------------------------------------------------------------
E|-----------------------------------------------------------------------2--2-----2--2--2--2--2--2--3--3--3--3--3--5--5--5--5--5--5--

Intro
Verse
Refrain
Intro
Bridge
(für vereinfachung 1. hälfte wiederholen)
G|-----7---11---4---6----
D|-----9---12---5---7----
A|-----------------------
E|-----------------------

G|-----7-----9--7-----7-----11----12-11----11----4-----5--4-----4--6-6-6-6-6
D|--9-----9--------9-----12----12-------12----5-----5--------5-----7-7-7-7-7
A|-----------------------------------------------------------------------
E|-----------------------------------------------------------------------

Refrain

Solo
G|-----------------------------------------------------------------------
D|-----------------------------------------------------------------------
A|-----2--2--2--2--2--2--2--2--2--2--2--5--5--5--5--5--5--5--5--5--5--5--
E|-----------------------------------------------------------------------

G|--------------------------------------------------------------------
D|--------------------------------------------------------------------
A|--------------------------------------------------------------------
E|--3--3--3--3--3--3--3--3--3--3--3--5--5--5--5--5--5--5--5--5--5--5--

G|--------------------------------------------------------------------------------------------------------------------------
D|--------------------------------------------------------------------------------------------------------------------------
A|--2--2--2--5--2--2--2--5--7--5--9--9--9--7--7--5--5--2--4--5--------------------------------------------------------------
E|--------------------------------------------------------------2--2--2-----2--2--2--2--2--3--3--3--3--3--5--5--5--5--5--5--

G|-----------------
D|-----------------
A|--------5--------
E|-----7-----5--7--

tabs and chords, guitar tabs, music transcription, music technology, deep learning, music information retrieval, transcribe into tabs & chords, chordify, music renditions, songsterr, reverbnation, tabulature, bollywood chords, ultimate guitar, yousician, guitar lessons, acoustic guitar, electric guitar, guitar tuner, 911 tabs