Bass Tabs for Lemonsweet - Lemonsweet Bass Tab

(/) Slide Up  (\) Slide Down  (h) Hammer On  (p) Pull Off  (b) Bend (r) Release (v) Vibrato (x) Muted

Tabs for Song : Lemonsweet

Intro
G|-----------------------------------------
D|-----------------------------------------
A|------0h-2h3---2p0--5---5h7--------------
E|-----------------------------0--0--0-----

G|-----------------------------------------------------------------------------------------
D|-----------------------------------------------------------------------------------------
A|---0h2--3--3--3--3--2--0--0--0--0--5--7--7--7--7--7--7--7--7--10-10-10-10-10-10-10-10-
E|--------------------------------------------------------------------------------------

Refrain 
G|-----------------------------------------------------------------------
D|-----------3--------------------------2--2--0--2--2--2--2--2--4--4--5--
A|--3--3--5-----5--3--------------3--------------------------------------
E|--------------------5--5--3--5-----5-----------------------------------

G|-----------------------------------------------------------------------
D|-----------3--------------------------2--2--0--2--2--2--5--5--4--4--2--
A|--3--3--5-----5--3--------------3--------------------------------------
E|--------------------5--5--3--5-----5-----------------------------------
Vereinfacht:(strumming : 1-12-123-1-12-123 bzw. d/ d/u/ d/u/d d/ d/u/ d/u/d)

G|--------------------------------------------------------------------------
D|--------------------------------------------------------------------------
A|-----3--3--3--3--3--3--------------------7--7--7--7--7--7--7--7--9--9--10-
E|-----------------------5--5--5--5--5--5-----------------------------------

G|-----------------------------------------------------------------------
D|-----------------------------------------------------------------------
A|--3--3--3--3--3--3--------------------7--7--7--7--7--7--10-10-9--9--7--
E|--------------------5--5--5--5--5--5-----------------------------------

Verse
G|-----------------------------------
D|-----------------------------------
A|--3--3--3--2--0--------------------
E|--------------------3--3--3--3--5--

Intro

Refrain

Verse

Intro

Refrain

Bridge

G|--------------------------------------------------------------------------
D|--------------------------------------------------------------------------
A|-----3--3--3--3--3--3--------------------7--7--7--7--7--7--7--7--9--9--10-
E|-----------------------5--5--5--5--5--5-----------------------------------

G|-----------------------------------------------------------------------
D|-----------------------------------------------------------------------
A|--3--3--3--3--3--3--------------------7--7--7--7--7--7--10-10-9--9--7--
E|--------------------5--5--5--5--5--5-----------------------------------

Refrain mit Ende
G|-----------------------------------
D|-----2--2--2--2--2--2-----5--4--5--
A|-----------------------------------
E|-----------------------------------

Refrain ohne Instrumental

Refrain

Ende:
G|--------------------
D|--------------------
A|-----3--3--3--2--0--
E|--------------------


tabs and chords, guitar tabs, music transcription, music technology, deep learning, music information retrieval, transcribe into tabs & chords, chordify, music renditions, songsterr, reverbnation, tabulature, bollywood chords, ultimate guitar, yousician, guitar lessons, acoustic guitar, electric guitar, guitar tuner, 911 tabs