Guitar Tabs for Øvesle

(/) Slide Up  (\) Slide Down  (h) Hammer On  (p) Pull Off  (b) Bend (r) Release (v) Vibrato (x) Muted


Tabs for Song : 
BPM : 200

Song lyrics here
E|--------------------------------------------------
B|--------------------------------------------------
G|--------------------------------------------------
D|-----------------------12-------------------------
A|--------10----9-----9--------9--------9--10h-9p---
E|--0--0-----0-----0--------0-----0--0-----------10-

Song lyrics he-

E|--------------------------------------------------
B|--------------------------------------------------
G|--------------------------------------------------
D|-----------------------12-------------------------
A|--------10----9-----10----8-----10-------9--10h-9p
E|--8--8-----8-----8-----------8-----8--8-----------

E|-----------------------------------------------------9
B|-----------------------------------------------------
G|-----------------------------------------------------
D|--------------------------12-------------------------
A|-----------10----9-----10-------10-------9--10h9-----
E|--10-10-10----10----10-------10----10-10----------10-



Paste any tab in acousterr's tab maker and we'll play it !!!
Now supports capo and sound effects for vibrato/pull-off/hammer/bends/mutes etc !!! Checkout help section
tabs and chords, guitar tabs, music transcription, music technology, deep learning, music information retrieval, transcribe into tabs & chords, chordify, music renditions, songsterr, reverbnation, tabulature, bollywood chords, ultimate guitar, yousician, guitar lessons, acoustic guitar, electric guitar, guitar tuner, 911 tabs