Guitar Tabs for Valborg

Håkan Hellström - Valborg
Tuning: Standard
Arranged by Filip Vidal
Inspired by Rilind Halitaj
 
BPM : 100

Intro
E|--------------------------------------------------
B|--------------------------------------------------
G|--------0-----0-----0-----------0-----0-----0-----
D|-----0-----0-----0-----0-----0-----0-----0-----0--
A|--------------------------------------------------
E|--3-----------------------3-----------------------

Änglarna har åkt på pisk
Gårdarna är grönsvarta
E|--------------------------------------------------------------------------------------------------
B|--------------------0--1--3-----------0-----------------------------------------------------------
G|--------0-----0--2--------------4-----------4-----0-----0-----0--2--4--0---2/4--2-----5--4---4/7--
D|-----0-----0-----------------4-----4-----4-----4-----2-----2---------------0/------0--------------
A|--------------------------2-----------------------3-----------3-----------------------------------
E|--3-----------3-----------------------------------------------------------------------------------

Och i Azalea kan man inte undgå att bli kär
E|-----------------------------------------------2--0--------------0-----------------------------------
B|--------------------0---1/3--------------0--------------------------3--1--0--------------------------
G|--------0-----0--2-----------------4-----------4-----------0-----------------2-----2-----2-----2-----
D|-----0-----0--------------------4-----4-----4-----------2-----2--------------0--0-----0-----0-----0--
A|-----------------------------2-----------------------3-----------3-----------------------------------
E|--3-----------3--------------------------------------------------------------------------------------

Där går en som svär att allt du gör är gott
Mhm, ja, jag är din, om du
E|--------------0-----------------------------------------------------------------------------------------------------
B|-----------------3--1--0--------------------------------------------------------------------------------------------
G|--------0-----------------2-----2------2/4-----5---5/7--------7-----5-----4------4/-5p4-----4------2/4--2-----2-----
D|-----2-----2-----------------0-----0--------0--------------0-----0-----0-----0-----------0-----0-----------0-----0--
A|--3-----------3-----------0-----------------------------------------------------------------------------------------
E|--------------------------------------------------------3------------------------0/---------------------------------

Vill ha en idiot lägg din hand i min
Mmmm, lägg din hand i min
E|---------------------------------------------------2/x--
B|---------------------------------------------------2/x--
G|--0-----0-----0--2--4--0---2/4--2------4/5--4--0---2/x--
D|-----2-----2---------------0/------0---------------2/x--
A|--3-----------3------------------------------------2/x--
E|---------------------------------------------------2/x--

E|--------------------------------------------------
B|--------------------------------------------------
G|--------0-----------------------------------------
D|-----0-----0--------------------------------------
A|--------------------------------------------------
E|--3-----------3--5--7--3--10-10-8--8--7--7--5--5--

Outro
E|-----------------------------------------------------
B|-----------------------------------------------------
G|--------0-----0-----0-----------0-----0-----0--------
D|-----0-----0-----0-----0-----0-----0-----0-----0-----
A|-----------------------------------------------------
E|--3-----------------------3-----------------------3--

Use manual mode to free up cursor. Paste any tab in acousterr tab maker and we'll play it !!!
tabs and chords, guitar tabs, music transcription, music technology, deep learning, music information retrieval, transcribe into tabs & chords, chordify, music renditions, songsterr, reverbnation, tabulature, bollywood chords, ultimate guitar, yousician, guitar lessons, acoustic guitar, electric guitar, guitar tuner, 911 tabs