Guitar Tabs for :v

(/) Slide Up  (\) Slide Down  (h) Hammer On  (p) Pull Off  (b) Bend (r) Release (v) Vibrato



Tabs for Song : -----

---------------------------------------------------------------------------------------------------
E|--------------------------------------------------------------------------------------------------
B|-----------------------------------------------------3--------3--------3-----3--------3--------3--
G|-----2--------2--------2-----2--------2--------2--------4--------4--------------4--------4--------
D|--------4--------4--------------4--------4--------4--------4--------4-----4--------4--------4-----
A|--4--------4--------4-----4--------4--------4-----------------------------------------------------
E|--------------------------------------------------------------------------------------------------


E|-----2--------2--------2-----2--------2--------2-----0--------0--------0-----0--------0--------0--
B|--------3--------3--------------3--------3--------------0--------0--------------0--------0--------
G|--2--------2--------2-----2--------2--------2-----1--------1--------1-----1--------1--------1-----
D|--------------------------------------------------------------------------------------------------
A|--------------------------------------------------------------------------------------------------
E|--------------------------------------------------------------------------------------------------

E|--------------------------------------------------------------------------------------------------
B|-----------------------------------------------------3--------3--------3-----3--------3--------3--
G|-----2--------2--------2-----2--------2--------2--------4--------4--------------4--------4--------
D|--------4--------4--------------4--------4--------4--------4--------4-----4--------4--------4-----
A|--0--------4--------4-----0--------4--------4-----------------------------------------------------
E|--------------------------------------------------------------------------------------------------

E|-----2--------2--------2-----2--------2--------2-----0--------0--------0-----0--------0--------0--------------------------
B|--------3--------3--------------3--------3--------------0--------0--------------0--------0--------------------------------
G|--2--------2--------2-----2--------2--------2-----1--------1--------1-----1--------1--------1-----------------------------
D|--------------------------------------------------------------------------------------------------------------------------
A|--------------------------------------------------------------------------------------------------------------------------
E|--------------------------------------------------------------------------------------------------------------------------

------
------------------------------------------------
E|-----------------------------------------------------------------------2-----------------------2--
B|-----------------------2-----------------------2-----3--------3--------------3--------3-----------
G|-----2--------2--------------2--------2-----------------4--------4--------------4--------4--------
D|--------4--------4--------------4--------4--------4--------4--------4-----4--------4--------4-----
A|--4--------4--------4-----4--------4--------4-----------------------------------------------------
E|--------------------------------------------------------------------------------------------------


E|-----2--------2--------5-----2--------2--------5-----0--------0--------4-----0--------0--------4--
B|--------3--------3--------------3--------3--------------0--------0--------------0--------0--------
G|--2--------2--------2-----2--------2--------2-----1--------1--------1-----1--------1--------1-----
D|--------------------------------------------------------------------------------------------------
A|--------------------------------------------------------------------------------------------------
E|--------------------------------------------------------------------------------------------------




E|--




Song lyrics here
---

E|--
B|--
G|--
D|--
A|--
E|--

E|--
B|--
G|--
D|--
A|--
E|--



Song lyrics here
E|--
B|--
G|--
D|--
A|--
E|--

Now supports capo and sound effects for vibrato/pull-off/hammer/bends etc !!! Checkout help section
tabs and chords, guitar tabs, music contests, music covers, songsterr, reverbnation, renditions, tabulature, bollywood chords, ultimate guitar, yousician, guitar lessons, torrins, fender, gibson, acoustic guitar, electric guitar, youtube covers, gootar, guitar tuner, A-Z tabs, 911 tabs