Bass Tabs for Unclerighteous

(/) Slide Up  (\) Slide Down  (h) Hammer On  (p) Pull Off  (b) Bend (r) Release (v) Vibrato (x) Muted

Tabs for Song : 

Intro
G|--------------------------------------------------------------------------------------------------------------------------------------------------------------
D|--------------------------------------------------------------------------------------------------------------------------------------------5--5--5--5--5--5--
A|--------------------------------------------------------------------------------------------------------------------------------------------------------------
E|--3--2--1--0--3--2--1--0--3--3--2--2--1--1--0--0--3--3--2--2--1--1--0--0--3--2--1--0--3--2--1--0--3--3--2--2--1--1--0--0--3--3--3--3--3--3--------------------
verse
G|--------------------------------------------
D|--------------------------------------------
A|-----------------------------------1-----1--
E|--3--3--3--3--3--3--3--3--3--3--3-----3-----
Build
G|-----------------------------------------------------------------
D|-----------------------------------------------------------------
A|--3--1--------1-----1--------3-----3--6--6--6--6--6--6--6--6--5--
E|--------3--3-----3-----3--3-----3--------------------------------
Chorus
G|-----------------------------------------------------------------------------------------------
D|-----------------------------------------------------------------------------------------------
A|--1--3--1--1--1--3--5--3--0--------------------------------------------------------------------
E|-----------------------------3--0--0--6--0--0--5--0--0--4--0--0--3--0--0--6--0--0--5--0--0--4--
Breakdown
G|-----------------------------------------------------------------------------------------------------------------------------------------
D|-----------------------------------------------------------------------------------------------------------------------------------------
A|-----------------------------------------------------------------------------------------------------------------------------------------
E|--3--3--3--3--3--3--3--3--3--3--3--3--3--3--0--3--3--3--3--3--3--3--3--3--3--3--3--3--3--0--3--------3--------6--3-----------3--------6--

Song lyrics here
G|--
D|--
A|--
E|--

Paste any tab in acousterr's tab maker and we'll play it !!!
Now supports capo and sound effects for vibrato/pull-off/hammer/bends/mutes etc !!! Checkout help section
tabs and chords, guitar tabs, music transcription, music technology, deep learning, music information retrieval, transcribe into tabs & chords, chordify, music renditions, songsterr, reverbnation, tabulature, bollywood chords, ultimate guitar, yousician, guitar lessons, acoustic guitar, electric guitar, guitar tuner, 911 tabs