Guitar Tabs for Trespasser

(/) Slide Up  (\) Slide Down  (h) Hammer On  (p) Pull Off  (b) Bend (r) Release (v) Vibrato (x) Muted

Tabs for Song : 

Song lyrics here
D|-----------------------------------------------------------------------------------
A|-----------------------------------------------------------------------------------
F|--------------------------4-----------------------------------8--9--9--9-----------
C|-----------------------5-----5--2-----------------------------------------10-9--8--
G|--------2--------------------------------------------------------------------------
C|--2--5-----5--2--0--2--------------0--1---4/7--4--1--0--1--4-----------------------

D|--------------------------------------------------------------------------
A|--------------------------------------------------------------------------
F|--------------------------------------------------------------------------
C|--------------------9--5--2--5--9--5--------------------7--------9--------
G|-----------------------------------------------------------9--6-----9--6--
C|--9--5--2--5--9--5--------------------7--4--1--4--7--4--------------------

D|-----14-15-14-15-15-14-------------------------------------------------------------------
A|--17-------------------17-16-17-17-16-17-16-16-16-15-13-12-13-13-12-11-10-9--10-11-12-7--
F|-----------------------------------------------------------------------------------------
C|-----------------------------------------------------------------------------------------
G|-----------------------------------------------------------------------------------------
C|-----------------------------------------------------------------------------------------

D|-----------------------
A|--8--7-----------------
F|--------9--8-----------
C|--------------10-9--6--
G|-----------------------
C|-----------------------

D|--------------------------------------------------------------6--
A|--------7--8--------------------7--8--------7---8/13-12-5--8-----
F|--8--9--------9--8--------8--9--------8--9-----------------------
C|--------------------10-9-----------------------------------------
G|-----------------------------------------------------------------
C|-----------------------------------------------------------------

Song lyrics here
D|--5--4--3--2--1--2--3--4---7/-8\7--------------------------
A|-----------------------------------8-----10-------12-------
F|--------------------------------------9-----11-------11----
C|-----------------------------------------------13-------13-
G|-----------------------------------------------------------
C|-----------------------------------------------------------

D|--------------------------------------------------------------------
A|--------------------------------------------------------------------
F|--------5--5--5--5--------------------------------------------------
C|--------------------------------------------------------------------
G|--------------------------------------------------------------------
C|--2v-1v-------------2--2--2--2--2--2--2--2--2--2--2--2--2--2--2--2--

D|--------------------------------------------------
A|--------------------------------------------------
F|--------------------------------------------------
C|--2--2--2--2--2--2--2--2--2--2--2--2--4--4--5--5--
G|--------------------------------------------------
C|--------------------------------------------------

Paste any tab in acousterr's tab maker and we'll play it !!!
Now supports capo and sound effects for vibrato/pull-off/hammer/bends/mutes etc !!! Checkout help section

D|--------------------------------------------------------------------------------------------
A|--------------------------------------------------------------------------------------------
F|--------------------------------------------------------------------------------------------
C|--------------------------------------------------------------------------------------------
G|--------------------------------------------------------------------------------------------
C|--1--1--1--1--1--1--1--1--1--1--1--1--1--1--1--1--4--5--4--1--4--5--4--2--4--5--4--1--1--1--

D|--------------------------------------------------------------------------
A|--------------------------------------------------------------------------
F|--------------------------------------------------------------------------
C|--------------------------------------------------------------------------
G|--------------------------------------------------------------------------
C|--2--2--2--2--2--2--2--2--2--2--2--2--1--1--1--1--1--1--1--1--1--1--1--1--

D|--------------------------------------------------------------------------
A|--------------------------------------------------------------------------
F|--------------------------------------------------------------------------
C|--------------------------------------------------------------------------
G|--------------------------------------------------------------------------
C|--2--2--2--2--2--2--2--2--2--2--2--2--2--2--2--2--2--2--2--2--2--2--2--2--

D|-----------------------------------------------------------------------------------------
A|-----------------------------------------------------------------------------------------
F|-----------------------------------------------------------------------------------------
C|--2--2--2--2--5--5--5--5-----------------------------------------------------------------
G|-----------------------------------------------------------------------------------------
C|--------------------------1--1--1--1--1--1--1--1--1--1--1--1--1--1--1--1--1--1--1--1--1--

D|--------------------------------------------------------------------
A|--------------------------------------------------------------------
F|--------------------------------------------------------------------
C|--------------------------------------------------------------------
G|--------------------------------------------------------------------
C|--10-10-10-10-10-10-10-10-10-10-10-5--5--5--5--5--5--5--5--5--5--5--

D|--------------------------------
A|--------------------------------
F|--------------------------------
C|--------------------------------
G|--------------------------------
C|--0--0--0--0--0--0--0--0--0--0--

D|--------------------------------------------------------------------
A|--------------------------------------------------------------------
F|--------------------------------------------------------------------
C|--------------------------------------------------------------------
G|--------------------------------------------------------------------
C|--2--2--2--2--2--2--2--2--2--2--2--10-10-10-10-10-10-10-10-10-10-10-

D|--------------------------------------------------------------------
A|--------------------------------------------------------------------
F|--------------------------------------------------------------------
C|--------------------------------------------------------------------
G|--------------------------------------------------------------------
C|--5--5--5--5--5--5--5--5--5--5--5--0--0--0--0--0--0--0--0--0--0--0--

D|-----------------------
A|-----------------------
F|-----------------------
C|-----------------------
G|-----------------------
C|--2--2--2--2--2--2--1--

D|-----14-15-14-15-15-14-12-------------------------------------------------
A|--17----------------------16-17-17-16-17-16-16-16-15-13-12-13-13-12-11-10-
F|--------------------------------------------------------------------------
C|--------------------------------------------------------------------------
G|--------------------------------------------------------------------------
C|--------------------------------------------------------------------------

D|--------------------------------------------------------------
A|--9--10-11-12-7--8--7-----------------------7--8--------------
F|-----------------------9--8-----------8--9--------9--8--------
C|-----------------------------10-9--6--------------------10-9--
G|--------------------------------------------------------------
C|--------------------------------------------------------------

D|--------------------------------------------------------------------------
A|--------------------------------------------------------------------------
F|--------------------------------------------------------------------------
C|--------------------------------------------------------------------------
G|--------------------3--3--3--3--2--------------------------3--3-----------
C|--2--2--2--2--1--1-----------------2--2--2--2--1--1--1--1--------1--1--1--

D|-----------------------------------------------------------------------
A|-----------------------------------------------------------------------
F|-----------------------------------------------------------------------
C|-----------------------------------------------------------------------
G|--------------------3--3--3--3--2--------------------------------------
C|--2--2--2--2--1--1-----------------2--2--2--2--1--1--1--1--1--1--1--1--

D|--------------------------------------------------------------------------------------
A|--------------------------------------------------------------------------------------
F|--------------------------------------------------------------------------------------
C|--------------------------------------------------------------------------------------
G|--------------------------------------------------------------------3--3--3--3--3--2--
C|--2--2--2--2--2--2--2--2--5--5--5--5--5--4--1--1--1--1--1--1--1--1--------------------

D|--------------------------------------------------------------------------------------
A|--------------------------------------------------------------------------------------
F|--------------------------------------------------------------------------------------
C|--------------------------------------------------------------------------------------
G|--------------------------------------------------------------------3--3--3--3--3--2--
C|--2--2--2--2--2--2--2--2--5--5--5--5--5--4--1--1--1--1--1--1--1--1--------------------

D|-----------------------------------------------------------------------------------------
A|-----------------------------------------------------------------------------------------
F|-----------------------------------------------------------------------------------------
C|--------------1--2--1-----5---4/-5\4--5--6--7-----------5--4--3-----4--5--7--6--7---8/9--
G|--------0--2-----------2-----------------------6--5--3-----------6-----------------------
C|--2--5-----------------------------------------------------------------------------------

D|--------------------------------------------------------------------------
A|--------------------------------------------------------------------------
F|--------------------------------------------------------------------------
C|--------------------------------------------------------------------------
G|--------------------------------------------------------------------------
C|--2--2--2--2--2--2--2--2--2--2--2--2--2--2--2--2--7--7--7--7--7--7--7--7--

D|-----------------------------------------------------------
A|-----------------------------------------------------------
F|-----------------------------------------------------------
C|-----------------------------------------------------------
G|-----------------------------------------------------------
C|--8--8--8--8--9--9--9--9--10-10-10-10-10-10-10-10-10-10-10-

D|--------------------------------------------------------------------
A|--------------------------------------------------------------------
F|--------------------------------------------------------------------
C|--------------------------------------------------------------------
G|--------------------------------------------------------------------
C|--5--5--5--5--5--5--5--5--5--5--5--0--0--0--0--0--0--0--0--0--0--0--

D|--------------------------------------------------------------------
A|--------------------------------------------------------------------
F|--------------------------------------------------------------------
C|--------------------------------------------------------------------
G|--------------------------------------------------------------------
C|--2--2--2--2--2--2--2--2--2--2--2--10-10-10-10-10-10-10-10-10-10-10-

D|--------------------------------------------------------------------
A|--------------------------------------------------------------------
F|--------------------------------------------------------------------
C|--------------------------------------------------------------------
G|--------------------------------------------------------------------
C|--5--5--5--5--5--5--5--5--5--5--5--0--0--0--0--0--0--0--0--0--0--0--

D|--------------------------------------------------------
A|--------------------------------------------------------
F|--------------------------------------------------------
C|--------------------------------------------------------
G|-----------------------------------------3--3--3--3--2--
C|--2--2--2--2--2--2--1--2--2--2--2--1--1-----------------

D|--------------------------------------------------------------------
A|--------------------------------------------------------------------
F|--------------------------------------------------------------------
C|--------------------------------------------------------------------
G|--------------------3--3-----------------------------3--3--3--3--2--
C|--2--2--2--2--1--1--------1--1--1--2--2--2--2--1--1-----------------

D|-----------------------------------------------------------
A|-----------------------------------------------------------
F|-----------------------------------------------------------
C|-----------------------------------------------------------
G|-----------------------------------------------------------
C|--2--2--2--2--1--1--1--1--1--1--1--2--1---2/8--1--1--1--1--

D|--------------------------------------------------
A|--------------------------------------------------
F|--------------------------------------------------
C|--------------------------------------------------
G|--------------------------------------------------
C|--2---1/8--2--5--5--5--4--2--1---2/8--1--1--1--1--

D|--------------------------------------------
A|--------------------------------------------
F|--------------------------------------------
C|--------------------------------------------
G|--------------------------------------------
C|--2---1/8--2--2--1--2--1---2/8--1--1--1--1--

D|--------------------------------------------------
A|--------------------------------------------------
F|--------------------------------------------------
C|--------------------------------------------------
G|--------------------------------------------------
C|--2---1/8--2--5--5--5--4--2--1---2/8--1--1--1--1--

D|-----------------------
A|-----------------------
F|-----------------------
C|-----------------------
G|-----------------------
C|--2---1/8--2--2--1--2--

D|-----
A|-----
F|-----
C|-----
G|-----
C|--1--

D|--------------------------------------------------
A|--------------------------------------------------
F|--------------------------------------------------
C|--------------------------------------------------
G|--------------------------------------------------
C|--2--2--2--2--2--2--2--2--2--2--2--2--2--2--2--2--

D|--------------------------------------------------
A|--------------------------------------------------
F|--------------------------------------------------
C|--2--2--2--2--2--2--2--2--2--2--2--2--4--4--5--5--
G|--------------------------------------------------
C|--------------------------------------------------

D|--------------------------------------------------
A|--------------------------------------------------
F|--------------------------------------------------
C|--------------------------------------------------
G|--------------------------------------------------
C|--1--1--1--1--1--1--1--1--1--1--1--1--1--1--1--1--

D|--------------------------------------------------------
A|--------------------------------------------------------
F|--------------------------------------------------------
C|--------------------------------------------------------
G|--------------------------------------2--2--2--2--2--2--
C|--2--2--2--2--2--2--5--5--5--5--5--5--------------------

D|--------------------------------------
A|--------------------------------------
F|--------------------------------------
C|--------------------------------------
G|--------------------------------------
C|--5--5--5--5--2--2--1--1--1--1--1--1--

D|--------------------------------------
A|--------------------------------------
F|--------------------------------------
C|--------------------------------------
G|--------------------5--5--5--5--6--6--
C|--5--5--5--5--5--5--------------------

D|--------------------------------------
A|--------------------------------------
F|--------------------------------------
C|--------------------------------------
G|--1--1--1--1--2--2--------------------
C|--------------------2--2--2--2--2--2--

D|--------------------------------------------------------
A|--------------------------------------------------------
F|--------------------------------------------------------
C|--------------------------------------------------------
G|--------------------2--2--2--2--2--2--------------------
C|--5--5--5--5--5--5--------------------5--5--5--5--2--2--

D|--------------------------------
A|--------------------------------
F|--------------------------------
C|--------------------------------
G|--------------------------------
C|--1--1--1--1--1--1--7--7--7--7--

D|-----------------------------------
A|-----------------------------------
F|-----------------------------------
C|-----------------------------------
G|-----------------------------------
C|--10-10-10-10-10-10-10-10-10-10-10-

D|--------------------------------------------------------------------
A|--------------------------------------------------------------------
F|--------------------------------------------------------------------
C|--------------------------------------------------------------------
G|--------------------------------------------------------------------
C|--5--5--5--5--5--5--5--5--5--5--5--0--0--0--0--0--0--0--0--0--0--0--

D|--------------------------------------------------------------------
A|--------------------------------------------------------------------
F|--------------------------------------------------------------------
C|--------------------------------------------------------------------
G|--------------------------------------------------------------------
C|--2--2--2--2--2--2--2--2--2--2--2--10-10-10-10-10-10-10-10-10-10-10-

D|--------------------------------------------------------------------
A|--------------------------------------------------------------------
F|--------------------------------------------------------------------
C|--------------------------------------------------------------------
G|--------------------------------------------------------------------
C|--5--5--5--5--5--5--5--5--5--5--5--0--0--0--0--0--0--0--0--0--0--0--

D|--------------------------------------------------------------------
A|--------------------------------------------------------------------
F|--------------------------------------------------------------------
C|--------------------------------------------------------------------
G|--------------------------------------------------------------------
C|--2--2--2--2--2--2--2--2--2--2--2--12-12-12-12-12-12-12-12-12-12-12-

D|--------------------------------------------------------------------
A|--------------------------------------------------------------------
F|--------------------------------------------------------------------
C|--------------------------------------------------------------------
G|--------------------------------------------------------------------
C|--7--7--7--7--7--7--7--7--7--7--7--2--2--2--2--2--2--2--2--2--2--2--

D|-----------------------------------
A|-----------------------------------
F|-----------------------------------
C|-----------------------------------
G|-----------------------------------
C|--4--4--4--4--4--4--4--4--4--4--4--

D|--------------------------------------------------------------------
A|--------------------------------------------------------------------
F|--------------------------------------------------------------------
C|--------------------------------------------------------------------
G|--------------------------------------------------------------------
C|--12-12-12-12-12-12-12-12-12-12-12-7--7--7--7--7--7--7--7--7--7--7--

D|-----------------------------------
A|-----------------------------------
F|-----------------------------------
C|-----------------------------------
G|-----------------------------------
C|--2--2--2--2--2--2--2--2--2--2--2--

D|-----------------14-13-14-17-16-------------------------------------------------------------
A|--------------------------------17----------------------------------------------------------
F|-----------------------------------18-14-18-13----------10-11-13-13-14-13-14-16-14-16-18-16-
C|-----12-9--------------------------------------------11-------------------------------------
G|-----------9--8--------------------------------9--12----------------------------------------
C|--4-----------------------------------------------------------------------------------------

D|-----------------------
A|--14-15-14-17-15-14-17-
F|-----------------------
C|-----------------------
G|-----------------------
C|-----------------------



tabs and chords, guitar tabs, music transcription, music technology, deep learning, music information retrieval, transcribe into tabs & chords, chordify, music renditions, songsterr, reverbnation, tabulature, bollywood chords, ultimate guitar, yousician, guitar lessons, acoustic guitar, electric guitar, guitar tuner, 911 tabs