Guitar Tabs for Tahm Kench Theme

(/) Slide Up  (\) Slide Down  (h) Hammer On  (p) Pull Off  (b) Bend (r) Release (v) Vibrato (x) Muted

Tahm Kench Login Theme (Guitar 1)


D|-------------------------------------------------------------------------------------
A|-------------------------------------------------------------------------------------
D|-------------------------------------------------------------------------------------
D|---3b--p0--0--0------0-3-0--0--0---3b--r0--0--0-------0-3-0--3/5-3-0--3b-------------
A|------------------0h3------------------------------0h3-------------------------------
D|-------------------------------------------------------------------------------------

D|-------------------------------------------------0-3-0-------------------------------
A|---3/5--0-3--5--------------------------------0h3------------------------------------
D|-------------------------------------------------------------------------------------
D|---------------5p3p0-----0----3--3-3h5--3-0--------------0--0--0---------------------
A|-------------------------------------------------------------------------------------
D|-----------------------0---0---------------------------------------------------------

D|-------------------------------------------------------------------------------------
A|---3/5--0-3--5h8-5-------------------------------------------------------------------
D|-------------------------------------------------------------------------------------
D|-----------------------(0)---3--3-3h5-3-5-5h7v---------------------------------------
A|-------------------------------------------------------------------------------------
D|---------------------(0)--(0)--------------------------------------------------------

D|-------------------------------------------------------------------------------------
A|---3/5--3---------------------------5v-3v-0------------------------------------------
D|-------------------------------------------------------------------------------------
D|------------5p3p0---0-3/5--7--3---0--------------------------------------------------
A|-------------------------------------------------------------------------------------
D|-------------------------------------------------------------------------------------
                                                                                 (h)
D|-------------------------0-3-0----------12-15-12--12--12--12--12-----12-12-----12----
A|---------------------0h3----------12-15-------------------------12-15----------12----
D|-------------------------------------------------------------------------------12----
D|---3-0--0--0--0--0-------------------------------------------------------------12----
A|-------------------------------------------------------------------------------12----
D|-------------------------------------------------------------------------------12----
tabs and chords, guitar tabs, music contests, music covers, songsterr, reverbnation, renditions, tabulature, bollywood chords, ultimate guitar, yousician, guitar lessons, torrins, fender, gibson, acoustic guitar, electric guitar, youtube covers, gootar, guitar tuner, A-Z tabs, 911 tabs