Guitar Tabs for Theliesoflove

(/) Slide Up  (\) Slide Down  (h) Hammer On  (p) Pull Off  (b) Bend (r) Release (v) Vibrato (x) Muted

Tabs for Song : 
Capo on 1st fret 
       C                                  E                             A
E|--0-----3--------------3-----------------------4-----------0--------0-----------0---------------0h-1p0-----------
B|--------------1--------------3--1-----0--------------0-----------3-----0--------------1-----------------1--------
G|-----0-----------0--------0--------0--------1-----------1-----1-----------2--------------2-----------------2-----
D|--------------------------------------------------------------------------------------------------------------2--
A|--3--------3--------3--------------------0--------2--------------------------0-----0--------0--------------------
E|-----------------------------------------------------------------------------------------------------------------

   Fmaj7              G              c                            E                                      A                                           Fmaj7              G
E|--------1-----------------3--------0-----3------------------0----------0-----------------0--------------------0--------------------0--------------------1-----------1--------3---------
B|-----------1-----------0-----0-----------------1--------3-----1--------------0-----3-----------1-----1--1--------1-----1-----------------0-----0--------------1-----------0-----0-----
G|-----2--------2-----0-----------0-----0-----------0-----------------1-----------1-----1-----------2-----------------2-----0--1--------------1--------2-----------2-----0-----------0--
D|--3--------------3--------------------------------------------------------------------------------------------------------------------------------3--------3--------------------------
A|-----------------------------------3--------3--------3-----------2--------2--------2--------2-----------0--0--------------------0-----0-----------------------------------------------
E|--------------------3--------------------------------------------------------------------------------------------------------------------------------------------------2--------------

Paste any tab in acousterr's tab maker and we'll play it !!!
Now supports capo and sound effects for vibrato/pull-off/hammer/bends/mutes etc !!! Checkout help section
tabs and chords, guitar tabs, music transcription, music technology, deep learning, music information retrieval, transcribe into tabs & chords, chordify, music renditions, songsterr, reverbnation, tabulature, bollywood chords, ultimate guitar, yousician, guitar lessons, acoustic guitar, electric guitar, guitar tuner, 911 tabs