Guitar Tabs for Thehar Ja October - Armaan Malik

capo on 4th fret

Intro
E|--------------------------------------
B|-----1-----------3--------------------
G|--------------------------2--0--------
D|--------------------------3-----------
A|--0-----------------------------------
E|--------------3-----------------------

E|--------------------------------0-----
B|--------1-----------3-----------------
G|-----------------------------2--------
D|-----------------------------3--------
A|-----0--------------------------------
E|-----------------3--------------------

Saal badla, Haal badla
Tere aane se
E|--------------------------------------------------------------
B|---6/8--8--6--5--6-----3-----5--5--3--5-----3-----3-----5--5--
G|-----------------------------------------------5--------------
D|--------------------------------------------------------------
A|--------------------------------------------------------------
E|--------------------------------------------------------------


Zindagi ka khayal badla
Tere aane se
E|--------------------------------------------------------------------
B|------6/8--6--6--5---6p-5\3--3-----5--5--3--5-----3-----3-----5--5--
G|-----------------------------------------------------5--------------
D|--------------------------------------------------------------------
A|--------------------------------------------------------------------
E|--------------------------------------------------------------------


Zara zara sa…
Dooba dooba rehta hoon
E|-----------5--8--8-----8--5-----------5-----------5--8--8-----8--5--------
B|------5/8-----------------------8------------5/8-----------------------8--
G|--------------------------------------------------------------------------
D|--------------------------------------------------------------------------
A|--------------------------------------------------------------------------
E|--------------------------------------------------------------------------


Zara zara sa…
Dooba dooba tujh mein
E|-----------5--8--8-----8--5-----------5-----------5--8--8-----8--5-----5--
B|------5/8-----------------------8------------5/8--------------------------
G|--------------------------------------------------------------------------
D|--------------------------------------------------------------------------
A|--------------------------------------------------------------------------
E|--------------------------------------------------------------------------

Thehar jaa, hmm…
Tu kisi bahaane se
E|-----------------------------------------------------------------
B|---------5/8--8--8------3/5-----3--3--3-----3-----3-----5--5-----
G|-----------------------------------------------5-----------------
D|-----------------------------------------------------------------
A|-----------------------------------------------------------------
E|-----------------------------------------------------------------


Thehar jaa, hmm…
E|-----------------------------------------------------------
B|---5/8--8---8\6------3/5-----3--3--3-----3-----3-----5--5--
G|--------------------------------------------5--------------
D|-----------------------------------------------------------
A|-----------------------------------------------------------
E|-----------------------------------------------------------

ohh oh...
E|-----------5--8--8-----8--5-----------5-----------5--8--8-----8--5--------
B|------5/8-----------------------8------------5/8-----------------------8--
G|--------------------------------------------------------------------------
D|--------------------------------------------------------------------------
A|--------------------------------------------------------------------------
E|--------------------------------------------------------------------------


E|-----------5--8--8-----8--5-----------5-----------5--8--8-----8--5-----5--
B|------5/8-----------------------8------------5/8--------------------------
G|--------------------------------------------------------------------------
D|--------------------------------------------------------------------------
A|--------------------------------------------------------------------------
E|--------------------------------------------------------------------------



























tabs and chords, guitar tabs, music contests, music covers, songsterr, reverbnation, renditions, tabulature, bollywood chords, ultimate guitar, yousician, guitar lessons, torrins, fender, gibson, acoustic guitar, electric guitar, youtube covers, gootar, guitar tuner, A-Z tabs, 911 tabs