Guitar Tabs for Main Rahoon Ya Na Rahoon - Armaan Malik Tabs

(/) Slide Up  (\) Slide Down  (h) Hammer On  (p) Pull Off  (b) Bend (r) Release (v) Vibrato

Tabs for Song : Main Rahoon Ya Na Rahoon

Intro
E|--------5--------------------------5--------------------
B|--6--8-----8--6--6---6/8--8--6--8-----8--6--6-----------
G|-----------------------------------------------5---5/7--
D|--------------------------------------------------------
A|--------------------------------------------------------
E|--------------------------------------------------------

Intro
E|--------5-----------------------------------------------
B|--6--8-----8--6--6---6/8--8--6--5---------------8/10-8--
G|-----------------------------------7--5---5/7-----------
D|--------------------------------------------------------
A|--------------------------------------------------------
E|--------------------------------------------------------

Main rahoon ya na rahoon Tum mujh mein kahin baaki rehna
E|--8--8--7-----5--8--5-----------------------------------------------
B|-----------8-----------8--6--5--8--8--8--8--8--10\-8p6--8--8---8/10-
G|--------------------------------------------------------------------
D|--------------------------------------------------------------------
A|--------------------------------------------------------------------
E|--------------------------------------------------------------------

Mujhe neend aaye jo aakhiri Tum khwabon mein aate rehna
E|-----8--8--8--7--7-----5--8--5-----------------------------------------------
B|--6-----------------8-----------8--6--5--8--8--8--8--8--10\-8p6--8--8---8/10-
G|-----------------------------------------------------------------------------
D|-----------------------------------------------------------------------------
A|-----------------------------------------------------------------------------
E|-----------------------------------------------------------------------------

Bas itna hai tumse kehna
E|--8--10-12-10-10-12-10-8--------------------
B|--------------------------8--8--8---8/10h---
G|--------------------------------------------
D|--------------------------------------------
A|--------------------------------------------
E|--------------------------------------------

Bas itna hai tumse kehna
E|--------------------------------------
B|--10-11-10-8--8--10-10\-8p6--11-10-10-
G|--------------------------------------
D|--------------------------------------
A|--------------------------------------
E|--------------------------------------

Bas itna hai tumse kehna
E|--8--10-12-10-10-12-10-8--------------------
B|--------------------------8--8--8---8/10h---
G|--------------------------------------------
D|--------------------------------------------
A|--------------------------------------------
E|--------------------------------------------

Bas itna hai tumse kehna
E|-----------------------------------------
B|--10-11-10-8--8--10-10\-8p6-----------6--
G|-----------------------------5--5--5-----
D|-----------------------------------------
A|-----------------------------------------
E|-----------------------------------------

Again Repeat (Main rahoon ya na rahoon Tum mujhme kahin baaki rehna)..

Kisi roz baarish jo aaye Samajh lena boondon mein main hoon
E|-----8--8--5---------------8/10-10-10-10-10-10-10/12-10-10-8--
B|--6-----------8--8--6--6--------------------------------------
G|--------------------------------------------------------------
D|--------------------------------------------------------------
A|--------------------------------------------------------------
E|--------------------------------------------------------------

Subah dhoop tumko sataaye Samajh lena kirno mein main hoon
E|-----8--8--5---------------8/10-10-10-10-10-10-10/12-10-10-8--
B|--6-----------8--8--6--6--------------------------------------
G|--------------------------------------------------------------
D|--------------------------------------------------------------
A|--------------------------------------------------------------
E|--------------------------------------------------------------

Kuch kahun ya na kahun Tum mujhko sada sunte rehna
E|--8--8--7-----5--8--5-----------------------------------------------
B|-----------8-----------8--6--5--8--8--8--8--8--10\-8p6--8--8---8/10-
G|--------------------------------------------------------------------
D|--------------------------------------------------------------------
A|--------------------------------------------------------------------
E|--------------------------------------------------------------------

Again Repeat.. Bas itna hai tumse kehna..
tabs and chords, guitar tabs, music contests, music covers, songsterr, reverbnation, renditions, tabulature, bollywood chords, ultimate guitar, yousician, guitar lessons, torrins, fender, gibson, acoustic guitar, electric guitar, youtube covers, gootar, guitar tuner, A-Z tabs, 911 tabs