Guitar Tabs for Ghar Se Nikalte Hi - Armaan Malik Tabs

(/) Slide Up  (\) Slide Down  (h) Hammer On  (p) Pull Off  (b) Bend (r) Release (v) Vibrato (x) Muted

Tabs for Song : Ghar Se Nikalte Hi

Ghar se nikalte hi Kuch door chalte hi Raste mein hai uska ghar
E|-----------------------------5--5--8--------------8--8--8--13-12-8--------5--
B|--5--6--5-----5--6--5--8--6-----------8--5--8--6--------------------8--8-----
G|-----------7-----------------------------------------------------------------
D|-----------------------------------------------------------------------------
A|-----------------------------------------------------------------------------
E|-----------------------------------------------------------------------------

Pehli dafaa maine Jab usko dekha to Saansein gayi yeh thehar
E|-----------------------------5--5--8--------------8--8--8--13-12-8--------5--
B|--5--6--5-----5--6--5--8--6-----------8--5--8--6--------------------8--8-----
G|-----------7-----------------------------------------------------------------
D|-----------------------------------------------------------------------------
A|-----------------------------------------------------------------------------
E|-----------------------------------------------------------------------------

Rehti hai dil mein mere Kaise bataaun usey Main toh nahi keh sakaa Koi bataa de usey
E|-----5--8--5--------------5--8--5--------------5--8--5--------------5--8--5-----------
B|--8-----------6--5--8--8-----------6--5--6--8-----------6--5--8--8-----------6--8--6--
G|--------------------------------------------------------------------------------------
D|--------------------------------------------------------------------------------------
A|--------------------------------------------------------------------------------------
E|--------------------------------------------------------------------------------------

Ghar se nikalte hi Kuch door chalte hi Raste mein hai uska ghar
E|-----------------------------5--5--8--------------8--8--8--13-12-8--------5--
B|--5--6--5-----5--6--5--8--6-----------8--5--8--6--------------------8--8-----
G|-----------7-----------------------------------------------------------------
D|-----------------------------------------------------------------------------
A|-----------------------------------------------------------------------------
E|-----------------------------------------------------------------------------
tabs and chords, guitar tabs, music contests, music covers, songsterr, reverbnation, renditions, tabulature, bollywood chords, ultimate guitar, yousician, guitar lessons, torrins, fender, gibson, acoustic guitar, electric guitar, youtube covers, gootar, guitar tuner, A-Z tabs, 911 tabs