Guitar Tabs for Wajah Tum Ho - Armaan Malik Tabs

(/) Slide Up  (\) Slide Down  (h) Hammer On  (p) Pull Off  (b) Bend (r) Release (v) Vibrato (x) Muted

Tabs for Song : Wajah Tum Ho

Kaise Kahun Ishq Mein Tere Kitna Hun Betaab Main
E|--------------------------------------------------------------
B|--------------------------------------------------------------
G|--------------------------------------------------------------
D|-----10-8--10/11-11-8--10-10--8p7--8--8--5---------5/6--6--6--
A|--8-----------------------------------------8--8--------------
E|--------------------------------------------------------------

Aankhon Se Aankhe Mila Ke Chura Lun Tere Khwaab Main
E|-----------------------------------------------------------
B|-----------------------------------------------------------
G|-----------------------------------------------------------
D|-----8--6--8--8---6p5--6--6---5p3--5--5---5p3--3--5--6--3--
A|--6--------------------------------------------------------
E|-----------------------------------------------------------

Mere Saaye Hain Saath Mein 
E|--------------------------------------
B|--5--5---5/6--------------------------
G|--------------5---5/6-----------------
D|-----------------------8--8--10-10/11-
A|--------------------------------------
E|--------------------------------------

Yaara Jis Jagah Tum Ho
E|--------------------------------------------------------
B|--------------------------------------------------------
G|-----8---7/8-----------------------------------------5--
D|--8-----------10-10/11-8--10-5--3--5---5/6--5--8--6-----
A|--------------------------------------------------------
E|--------------------------------------------------------

Main Jo Jee Raha Hun
E|-----------------------------------------------------------
B|-----------------------------------------------------------
G|-----------5-----------------------------------------------
D|-----5--6-----6--8--8--6--5--6--6--6--6--6--6--6--8--6--5--
A|--8--------------------------------------------------------
E|-----------------------------------------------------------

Wajah Tum Ho..
E|--------------------------------------------
B|--------------------------------------------
G|--------------------------------------------
D|--6--5-----------------------------5--5--5--
A|--------8--6--8--8--8--8--8--6--8-----------
E|--------------------------------------------

Wajah Tum Ho..
E|--------------------------------------------------------
B|--------------------------------------------------------
G|--------------------------------------------------------
D|--6--5-----------------------------5--5--5--5--5--5--5--
A|--------8--6--8--8--8--8--8--6--8-----------------------
E|--------------------------------------------------------
tabs and chords, guitar tabs, music transcription, music technology, deep learning, music information retrieval, transcribe into tabs & chords, chordify, music renditions, songsterr, reverbnation, tabulature, bollywood chords, ultimate guitar, yousician, guitar lessons, acoustic guitar, electric guitar, guitar tuner, 911 tabs