Guitar Tabs for Pyar Manga Hai - Armaan Malik Tabs

(/) Slide Up  (\) Slide Down  (h) Hammer On  (p) Pull Off  (b) Bend (r) Release (v) Vibrato (x) Muted

Tabs for Song : Pyar Manga Hai

Pyar manga hai tumhi se Mujhe pyar karo
E|--------------------------10-------------------
B|--10-12-13-12-10-10-12-13-------10-12-10----10-
G|-----------------------------12----------12----
D|-----------------------------------------------
A|-----------------------------------------------
E|-----------------------------------------------

Aaj abhi zidd maano meri Na intezaar karo
E|--------------------------10----------------------
B|--10-12-13-12-10-10-12-13----------10-12-10----10-
G|-----------------------------12-12----------12----
D|--------------------------------------------------
A|--------------------------------------------------
E|--------------------------------------------------

Main bhi dil ki sun raha hoon Tum bhi dil ki suno
E|--------------12-12-10-10-10-10----10-10----------------
B|--14-14-14-14-------------------12-------13-12-13-12\10-
G|--------------------------------------------------------
D|--------------------------------------------------------
A|--------------------------------------------------------
E|--------------------------------------------------------

Pyar manga hai tumhi se Mujhe pyar karo
E|--------------------------10-------------------
B|--10-12-13-12-10-10-12-13-------10-12-10----10-
G|-----------------------------12----------12----
D|-----------------------------------------------
A|-----------------------------------------------
E|-----------------------------------------------
tabs and chords, guitar tabs, music transcription, music technology, deep learning, music information retrieval, transcribe into tabs & chords, chordify, music renditions, songsterr, reverbnation, tabulature, bollywood chords, ultimate guitar, yousician, guitar lessons, acoustic guitar, electric guitar, guitar tuner, 911 tabs