Guitar Tabs for The Diddly

(/) Slide Up  (\) Slide Down  (h) Hammer On  (p) Pull Off  (b) Bend (r) Release (v) Vibrato (x) Muted

Tabs for Song : 
BPM : 200

Song lyrics here 
E|-----------------------------------------------------------------------------------------------------------------------------------------
B|-----------------------------------------------------------------------------------------------------------------------------------------
G|-----6-----8-----9-----6-----6--8-----6-----8-----9-----6-----6--8-----11----13----14----11----11-13----11----13----14----11----11-13-14-
D|--7-----7-----7-----7-----7--------7-----7-----7-----7-----7--------12----12----12----12----12-------12----12----12----12----12----------
A|-----------------------------------------------------------------------------------------------------------------------------------------
E|-----------------------------------------------------------------------------------------------------------------------------------------

E|--
B|--
G|--
D|--
A|--
E|--

Song lyrics here 
E|--
B|--
G|--
D|--
A|--
E|--

Use manual mode to free up cursor. Paste any tab in acousterr tab maker and we'll play it !!!

Bass Tabs for The Diddly






G|--------------------------------------------------------------------------------------------------------------------------------------------------------------------------------
D|--7-----7-----7-----7-----7-----7-----7-----7-----7-----7---7/12----12----12----12----12----12----12----12----12----12----12----12----12----12----------------------------------
A|-----------------------------------------------------------------------------------------------------------------------------------------------12----12----12----12----12----12-
E|--------------------------------------------------------------------------------------------------------------------------------------------------------------------------------

G|--
D|--
A|--
E|--



G|--
D|--
A|--
E|--




G|--
D|--
A|--
E|--

Bass Tabs for The Diddly






G|--------------------------------------------------------------------------------------------------------------------------------------------------------------------------------
D|--7-----7-----7-----7-----7-----7-----7-----7-----7-----7---7/12----12----12----12----12----12----12----12----12----12----12----12----12----12----------------------------------
A|-----------------------------------------------------------------------------------------------------------------------------------------------12----12----12----12----12----12-
E|--------------------------------------------------------------------------------------------------------------------------------------------------------------------------------

G|--
D|--
A|--
E|--



G|--
D|--
A|--
E|--




G|--
D|--
A|--
E|--

Guitar Tabs for The Diddly






E|-----------------------------------------------------------------------------------------------------------------------
B|-----------------------------------------------------------------------------------------------------------------------
G|--9-----9-----9-----9-----9-----9-----9-----9-----9-----9------9/14----14----14----14----14----14----14----14----14----
D|--9-----9-----9-----9-----9-----9-----9-----9-----9-----9------9/14----14----14----14----14----14----14----14----14----
A|--7-----7-----7-----7-----7-----7-----7-----7-----7-----7------7/12----12----12----12----12----12----12----12----12----
E|-----------------------------------------------------------------------------------------------------------------------

E|--
B|--
G|--
D|--
A|--
E|--

E|--
B|--
G|--
D|--
A|--
E|--


E|--
B|--
G|--
D|--
A|--
E|--

tabs and chords, guitar tabs, music transcription, music technology, deep learning, music information retrieval, transcribe into tabs & chords, chordify, music renditions, songsterr, reverbnation, tabulature, bollywood chords, ultimate guitar, yousician, guitar lessons, acoustic guitar, electric guitar, guitar tuner, 911 tabs