Bass Tabs for The Chickening

(/) Slide Up  (\) Slide Down  (h) Hammer On  (p) Pull Off  (b) Bend (r) Release (v) Vibrato (x) Muted

the chickening 
BPM : 150

hopelessly spent, perfectly content
G|--------------------------------------------------------------------------------------------------------------
D|--2--------2--------------------------------------------------------------------------2--------2--------------
A|-----------------3-----2--------2-----2-----0--------0-----0-----2--------2-----2--------------------3-----2--
E|--------------------------------------------------------------------------------------------------------------

G|--------------------------------------------------------------
D|--------------------------------------------------------------
A|--------2-----2-----0--------0-----0-----2--------2-----2-----
E|--------------------------------------------------------------

joke's on who? funny you! 
G|--------4-----------4-----------4-----------4-----------------------------------------------------
D|-----3-----------3-----------3-----------3--------------------2-----3-----------------------------
A|--2-----------2-----------2-----------2-----------2-----2-----------------0-----0-----0-----0-----
E|--------------------------------------------------------------------------------------------------

G|--------4--3--------4--3--------4--3--------4--3--------------------------------------------------
D|-----3-----------3-----------3-----------3--------------------------------------------------------
A|--2-----------2-----------2-----------2-----------2-----2-----2-----2-----0-----0-----0-----0-----
E|--------------------------------------------------------------------------------------------------

let me make this clear, i'm insincere
G|--------------------------------------------------------------------------------------------
D|--------------------------------------------------------------------------------------------
A|--2-----------------------2-----------------2-----------------------2-----------------------
E|--------------3-----------------------3-----------------3-----------------------3-----------

pitiful little girl! pathetic, disturbed
G|--2--------2--------------------------------------------------------------------------2--------
D|-----------------3-----2--------2-----2-----0--------0-----0-----2--------2-----2--------------
A|-----------------------------------------------------------------------------------------------
E|-----------------------------------------------------------------------------------------------

G|--2--------------------------------------------------------------------------------------------
D|--------3-----2--------2-----2-----0--------0-----0-----2-----2-----2--------------------------
A|-----------------------------------------------------------------------------------------------
E|-----------------------------------------------------------------------------------------------

outro
G|-----------------------------------------------------------------------------------------
D|-----------3--2--------------------3--2--------------------3--2--------------------3--2--
A|--0--2--3-----------------0--2--3-----------------0--2--3-----------------0--2--3--------
E|-----------------------------------------------------------------------------------------


Use manual mode to free up cursor. Paste any tab in acousterr tab maker and we'll play it !!!





tabs and chords, guitar tabs, music transcription, music technology, deep learning, music information retrieval, transcribe into tabs & chords, chordify, music renditions, songsterr, reverbnation, tabulature, bollywood chords, ultimate guitar, yousician, guitar lessons, acoustic guitar, electric guitar, guitar tuner, 911 tabs